Song name
# A B C D E F G H I J K L M N O P Q R S T U V W X Y Z

Descendents - Im Not A Loser tab

this is my first post so tell me what you think
tempo=110
the distortion should be overdrive at all times
nobody could seem to get this quite right

P.S. the tabs are in order.


intro
E]-----------------------------------]-------------------------|
B]-----------------------------------]-------------------------|
G]---6-6-6-6-7-7-7-7-9-9-9-9-7-7-7-7-]6--7--9--7--6--4--6/-----|
D]---6-6-6-6-7-7-7-7-9-9-9-9-7-7-7-7-]6--7--9--7--6--4--6/-----|
A]---4-4-4-4-5-5-5-5-7-7-7-7-5-5-5-5-]4--5--7--5--4--2--4/-----|
E]-----------------------------------]-------------------------|

verse 1(x3)
E]---------------------------------]-------------------------------|
B]---------------------------------]-------------------------------|
G]----------------7--4-4-4-4-4-4-4-]4------4------4-6-6-6-6-9--6---|
D]---4--4--7---7--7--4-4-4-4-4-4-4-]4---7--4---7--4-6-6-6-6-9--6---|
A]---4--4--7---7--5--2-2-2-2-2-2-2-]2---7--2---7--2-4-4-4-4-7--4---|
E]---2--2--5---5-------------------]----5------5-------------------|

intro of verse 2
E]---------------------------------]----------------------------------|
B]---------------------------------]----------------------------------|
G]----------------7--4-4-4-4-4-4-4-]4------4------4-6-6-6-6-6-6-6-6---|
D]---4--4--7---7--7--4-4-4-4-4-4-4-]4---7--4---7--4-6-6-6-6-6-6-6-6---|
A]---4--4--7---7--5--2-2-2-2-2-2-2-]2---7--2---7--2-4-4-4-4-4-4-4-4---|
E]---2--2--5---5-------------------]----5------5----------------------|

verse 2(x3)
E]-----------------------------------]-------------------------------|
B]-----------------------------------]-------------------------------|
G]---6-6-6-6-7-7-7-7-9-9-9-9-7-7-7-7-]6-6-7-7-9-9-7-7-6-6-4-4-6-4----|
D]---6-6-6-6-7-7-7-7-9-9-9-9-7-7-7-7-]6-6-7-7-9-9-7-7-6-6-4-4-6-4----|
A]---4-4-4-4-5-5-5-5-7-7-7-7-5-5-5-5-]4-4-5-5-7-7-5-5-4-4-2-2-4-4----|
E]-----------------------------------]-------------------------------|

chorus(x3)
E]---------------------------------]-------------------------------|
B]---------------------------------]-------------------------------|
G]----------------7--4-4-4-4-4-4-4-]4------4------4-6-6-6-6-9--6---|
D]---4--4--7---7--7--4-4-4-4-4-4-4-]4---7--4---7--4-6-6-6-6-9--6---|
A]---4--4--7---7--5--2-2-2-2-2-2-2-]2---7--2---7--2-4-4-4-4-7--4---|
E]---2--2--5---5-------------------]----5------5-------------------|

end of chorus
E]---------------------------------]----------------------------------|
B]---------------------------------]----------------------------------|
G]----------------7--4-4-4-4-4-4-4-]4------4------4-6-6-6-6-6-6-6-6---|
D]---4--4--7---7--7--4-4-4-4-4-4-4-]4---7--4---7--4-6-6-6-6-6-6-6-6---|
A]---4--4--7---7--5--2-2-2-2-2-2-2-]2---7--2---7--2-4-4-4-4-4-4-4-4---|
E]---2--2--5---5-------------------]----5------5----------------------|

bridge(x5)
E]-----------------------------------]----------------------------------|
B]-----------------------------------]----------------------------------|
G]-----------------------------------]9-9-9-9-9-9-9-6-6-6-6-6-6-6-6-6---|
D]---4-4-4-4-4-4-4-4-4-4-4-4-4-4-4-4-]9-9-9-9-9-9-9-6-6-6-6-6-6-6-6-6---|
A]---4-4-4-4-4-4-4-4-4-4-4-4-4-4-4-4-]7-7-7-7-7-7-7-4-4-4-4-4-4-4-4-4---|
E]---2-2-2-2-2-2-2-2-2-2-2-2-2-2-2-2-]----------------------------------|

end(let ring)
E]-------|
B]-------|
G]-------|
D]---4---|
A]---4---|
E]---2---|

Lyrics(cencored)
Think that I'm a loser
'Cause now my pants are too low
Think that I'm a slob
'Cause I got holes in my shoes
Think my c*** is like
Just like my dirty shirt
Well you can f*** off
'Cause I'm working sixty a week
You think that life is really tough
When your daddy won't buy
You a brand new car
Take a girl out she won't f*** you
You just brought her a gram of coke
Spend all your money on ****** drugs
I'm not a loser! That's right,
I'm not a loser!
Cruise down the boulevard
Wasting Mommy's gas while you're
Looking for kicks on Friday night
You're only goal in life
Is to smoke a joint
And decide how you're gonna get
Laid tonight
You are a freaking son-of-a-B****

You arrogant ***hole
Your pants are too tight
You freaking homo
You suck, Mr. Butt-F***
You don't belong here
No away you freaking gay
I'm not a loser!
Tap to rate this tab
 
# A B C D E F G H I J K L M N O P Q R S T U V W X Y Z