Song name
# A B C D E F G H I J K L M N O P Q R S T U V W X Y Z

Descendents - Bikeage tab

-------------------------------------------------------------------------------
                             BIKEAGE - Descendents
-------------------------------------------------------------------------------
Tabbed by: min0r_threat
E-mail: ngrantj@yahoo.com

Tuning: Standard

INTRO
e|---------------------------------------------------------------------------|
B|--11-11-11-11--11-11-11-11--11-11-11-11--11-11-11-11--11-11-11-11----------|
G|--00-00-00-00--22-22-22-22--00-00-00-00--22-22-22-22--00-00-00-00----------|
D|--22-22-22-22--33-33-33-33--22-22-22-22--33-33-33-33--22-22-22-22----------|
A|--33-33-33-33--00-00-00-00--33-33-33-33--00-00-00-00--33-33-33-33----------|
E|---------------------------------------------------------------------------|

e|---------------------------------------------------------------------------|
B|--11-11-11-11-11-11-11-11--1-----------------------------------------------|
G|--22-22-22-22-00-00-00-00--2-----------------------------------------------|
D|--33-33-33-33-22-22-22-22--3-----------------------------------------------|
A|--00-00-00-00-33-33-33-33--0-(let ring)------------------------------------|
E|---------------------------------------------------------------------------|

VERSE
e|---------------------------------------------------------------------------|
B|---------------------------------------------------------------------------|
G|---------------------10101010-10101010-------------------------------------|
D|-10101010-10101010---10101010-10101010---7777-7777-5555-5555---------------|
A|-10101010-10101010---8-8-8-8--8-8-8-8----7777-7777-5555-5555---------------|
E|-8-8-8-8--8-8-8-8------------------------5555-5555-3333-3333---------------|

CHORUS ("Sittin' there...")
e|----------------------------------------------------------------------------|
B|----------------------------------------------------------------------------|
G|----------------------------------------10101010-10101010-10101010-10101010-|
D|--10101010-10101010-10101010-10101010---10101010-10101010-10101010-10101010-|
A|--10101010-10101010-10101010-10101010---8-8-8-8--8-8-8-8--8-8-8-8--8-8-8-8--|
E|--8-8-8-8--8-8-8-8--8-8-8-8--8-8-8-8----------------------------------------|

e|---------------------------------------------------------------------------|
B|---------------------------------------------------------------------------|
G|----------------------10101010---9999-9999-9999-9999-----------------------|
D|--10101010-10101010---10101010---9999-9999-9999-9999-----------------------|
A|--10101010-10101010---8-8-8-8----7777-7777-7777-7777-----------------------|
E|--8-8-8-8--8-8-8-8---------------------------------------------------------|

MELODY
e|----------------------------------------------------------------------------|
B|----------------------------------------------------------------------------|
G|---------------------10101010-10101010--------------------10101010-10101010-|
D|--10101010-10101010--10101010-10101010-10101010-10101010--10101010-10101010-|
A|--10101010-10101010--8-8-8-8--8-8-8-8--10101010-10101010--8-8-8-8--8-8-8-8--|
E|--8-8-8-8--8-8-8-8---------------------8-8-8-8--8-8-8-8---------------------|

BRIDGE
e|---------------------------------------------------------------------------|
B|---------------------------------------------------------------------------|
G|---------------------------------------------------------------------------|
D|--10101010-10101010--12-12-12-12--12-12-12-12------------------------------|
A|--10101010-10101010--12-12-12-12--12-12-12-12------------------------------|
E|--8-8-8-8--8-8-8-8---10-10-10-10--10-10-10-10------------------------------|

e|---------------------------------------------------------------------------|
B|---------------------------------------------------------------------------|
G|--10101010-10101010--12-12-12-12--12-12-12-12------------------------------|
D|--10101010-10101010--12-12-12-12--12-12-12-12------------------------------|
A|--8-8-8-8--8-8-8-8---10-10-10-10--10-10-10-10------------------------------|
E|---------------------------------------------------------------------------|


SONG STRUCTURE:
INTRO
VERSEx4
CHORUS
MELODY
CHORUS
MELODY
BRIDGEx4
CHORUS
MELODY
CHORUS
MELODYx4
END with D--9-- right after last MELODY part
         A--9--
         E--7--

And that's it!

Tap to rate this tab
# A B C D E F G H I J K L M N O P Q R S T U V W X Y Z