Guitaretab - guitar tabs
Song name
# A B C D E F G H I J K L M N O P Q R S T U V W X Y Z

Descendents - Kabuki Girl tab

Kabuki Girl
By THE DESCENDENTS

INTRO
|----------------|
|----------------|
|-6666-6666-6666-|
|-6666-6666-6666-|
|-4444-4444-4444-|
|----------------|

VERSE 1
|-------------------------------------------------------------------|
|-------------5-5----------5-5--------------------------------------|
|-2--4--6666--4-4-4-4-6666-4-4-4-4-6666-2222-4444-6666--------------|
|-2--4--6666--2-2-4-4-6666-2-2-4-4-6666-2222-4444-6666-7-7-66666666-|
|-0--2--4444------2-2-4444-----2-2-4444-0000-2222-4444-7-7-66666666-|
|------------------------------------------------------5-5-44444444-|

VERSE 2
|---------------------------------------------------------------------------|
|-------------5-5----------5-5----------------------------------------------|
|-2--4--6666--4-4-4-4-6666-4-4-4-4-6666-2222-4444-6666----------------------|
|-2--4--6666--2-2-4-4-6666-2-2-4-4-6666-2222-4444-6666-7-7-6666666666666666-|
|-0--2--4444------2-2-4444-----2-2-4444-0000-2222-4444-7-7-6666666666666666-|
|------------------------------------------------------5-5-4444444444444444-|
[ Tab from: http://www.guitaretab.com/d/descendents/33578.html ]
 VERSE 3
|----------------------------------------------------------------|
|-------------5-5----------5-5-----------------------------------|
|-2--4--6666--4-4-4-4-6666-4-4-4-4-6666-2222-4444-6666-----------|
|-2--4--6666--2-2-4-4-6666-2-2-4-4-6666-2222-4444-6666-7-7-6-----|
|-0--2--4444------2-2-4444-----2-2-4444-0000-2222-4444-7-7-6-----|
|------------------------------------------------------5-5-4-----|

CHORUs
|----------------------------------------------------------------|
|-----------------------------------333333333333333--------------|
|-----------------------------------222222222222222-2---6-4------|
|-----------------------------------000000000000000-2---6-4-x-6--|
|-4444444444444444-2222222222222222-----------------0---4-2-x-6--|
|-2222222222222222-0000000000000000-------------------------x-4--|

Song ORDER

INTRO
VERSE 1
Verse 2
Chorus
Verse 2
Chorus
Verse 3

Good song. Decent Band. This is one of the better songs off of one of the better albums, 
Goes To College.

E-mail at hella-address@sbcglobal.net if oyu have any congrads or insults
Related for Kabuki Girl tab
Advertisement will be closed in 10 seconds