Song name
# A B C D E F G H I J K L M N O P Q R S T U V W X Y Z

Descendents - When I Get Old tab

This is my first tab. Hope you guys enjoy it.

Song: When I get old
Artist: Descendents

I'm going to give you the chords, the strumming won't be hard to figure out.


Intro/chorus
e|---------------------------|
B|-8-------------------------|
G|-9--4-5--4/6---------------|
D|-9--4-5--5/7---------------|  (x2)
A|-7--2-3--5/7---------------|
E|---------3/5---------------|

e|------------------------------|
B|-8----------------------------|
G|-9-4-5-10---------------------|
D|-9-4-5-10---------------------|
A|-7-2-3-8----------------------|
E|------------------------------|

Verse
e|---------------------------|
B|---------------------------|
G|---7------4-9--------------|
D|-5-7-10---4-9-8------------|  (x2)
A|-5-5-10---2-7-8------------|
E|-3---8--------6------------|

e|------------------------------|
B|------------------------------|
G|---7----10--------------------|
D|-5-7-10-10--------------------|
A|-5-5-10-8---------------------|
E|-3---8------------------------|

Play the intro again, play the verse again, play the intro again, but at the end play a 
D#5 (x688x) instead of an F5 (x81010x)

Bridge

e|---------------------------------------------|
B|--------8--5---------------------------------|
G|-4---8--9--5-----4------10-------------------|
D|-5---9--9--5-----4---5--10-------------------|
A|-5---9--7--3-----2---5--8--------------------|
E|-3---7---------------7-----------------------|

Play the intro again, but with this at the end, after you strum the c5 (x355x)

e|---------------------------|
B|---------------------------|
G|---5-7-5-4-9---------------|
D|--5----5-4-9---------------|
A|-3-----3-2-7---------------|
E|---------------------------|
Tap to rate this tab
 
# A B C D E F G H I J K L M N O P Q R S T U V W X Y Z