Song name
# A B C D E F G H I J K L M N O P Q R S T U V W X Y Z

Descendents - Talking tab

Talking - Descendents

Tabbed By: Ethan Beschler

This CD just came out a short while ago, and I loved it, so I felt the need to tab out this
song. I'm pretty sure its almost perfect. If you have any corrections, post them on this site.

* = palm mute
/ = slide
b = bend
r = release
~ = vibrato (wiggle the note back and forth)
Intro
e|-----------------------------------------------|
B|-----------------------------------------------|
G|10101010-7-14--10101010-7-14--10101010-7-14--9-|
D|10101010-7-14--10101010-7-14--10101010-7-14--9-|   Go Right Into Verse!
A|8-8-8-8--5-12--8-8-8-8--5-12--8-8-8-8--5-12--7-|
E|-----------------------------------------------|

Verse
e|----------------------------------------------------------------------|
B|----------------------------------------------------------------------|
G|2222222222222222-6-4-6-77777777-1111111111111111-77777777--10101010-7-|
D|2222222222222222-6-4-6-77777777-1111111111111111-77777777--10101010-7-|
A|0000000000000000-4-2-4-55555555-9-9-9-9-9-9-9-9--55555555--8-8-8-8--5-|
E|----------------------------------------------------------------------|
  ****************

Riff 1
e|--------|
B|--------|
G|22222222|
D|22222222|
A|00000000|
E|--------|

Chorus
e|-------------------------------------------------------------------------------|
B|-------------------------------------------------------------------------------|
G|-----99-xx-9------99-xx-9-1010101010101010-99999999-22222222----------77777777-|
D|99-x-99-xx-9-99-x-99-xx-9-1010101010101010-99999999-22222222-44444444-77777777-|
A|99-x-77-xx-7-99-x-77-xx-7-8-8-8-8-8-8-8-8--77777777-00000000-44444444-55555555-|
E|77-x---------77-x--------------------------------------------22222222----------|

Chorus, Continued

e|--------|
B|--------|
G|99999999|
D|99999999|
A|77777777|
E|--------|

Riff 2
e|--------------|
B|--------------|
G|22222222222229|
D|22222222222229|
A|00000000000007|
E|--------------|

Riff 3
e|----------------|
B|----------------|
G|2222222222222222|
D|2222222222222222|
A|0000000000000000|
E|----------------|

Bridge
e|----------------------------------------------------------------------------|
B|----------------------------------------------------------------------------|
G|99-99-66-22-99-99-66-22-9999999999999999-66666666-22222222-9999999999999999-|
D|99-99-66-22-99-99-66-22-9999999999999999-66666666-22222222-9999999999999999-|
A|77-77-44-00-77-77-44-00-7777777777777777-44444444-00000000-7777777777777777-|
E|----------------------------------------------------------------------------|
                          ****************
Bridge, Continued
e|--------------------------|
B|--------------------------|
G|66666666-22222222-99999999|
D|66666666-22222222-99999999|
A|44444444-00000000-77777777|
E|--------------------------|

Solo
e|-----------------------------------------------|
B|--------------------------------------9--------|
G|666-4/6-2--44-2-666-4/6-7--99-7-9b9999-9r-7-9~-|
D|-----------------------------------------------|
A|-----------------------------------------------|
E|-----------------------------------------------|

Riff 4
e|--------------------|
B|--------------------|
G|10101010-7-22222222-|
D|10101010-7-22222222-|
A|8-8-8-8--5-00000000-|
E|--------------------|

Riff 5
e|------------------------------------|
B|------------------------------------|
G|22222222----------77777777-99999999-|
D|22222222-44444444-77777777-99999999-|
A|00000000-44444444-55555555-77777777-|
E|---------22222222-------------------|

Riff 6
e|-------------------------------------------------------|
B|-------------------------------------------------------|
G|10101010-777-10101010-777-10101010-777-2---------------|
D|10101010-777-10101010-777-10101010-777-2---------------|
A|8-8-8-8--555-8-8-8-8--555-8-8-8-8--555-0<--------------| End note, so hold it.
E|-------------------------------------------------------|

Order

Intro x1
Verse x2
Riff 1 x1
Chorus x1
Riff 2 x1
Verse x2
Riff 1 x1
Chorus x1
Riff 3 x1
Bridge and Bridge, Continued x1
Solo x1
Riff 4 x1
Verse x1
Riff 1 x1
Chorus x1
Riff 5 x2
Riff 6 x1
Tap to rate this tab
 
# A B C D E F G H I J K L M N O P Q R S T U V W X Y Z