Song name
# A B C D E F G H I J K L M N O P Q R S T U V W X Y Z

Descendents - Coolidge tab

e-----------------------------------------------|
B--5b---4-3-4--3h4p3h4p3h4p3h4p3h4p3h4p3~~~~~~--|
G-----------------------------------------------|
D-----------------------------------------------|
A-----------------------------------------------|
E-----------------------------------------------|


e-----------------------------------------------|
B------------------3---5--3---------------------|
G---------2---2--4---4--------------------------|
D--2-3-4----3-----------------------------------|
A-----------------------------------------------|
E-----------------------------------------------|



e-----------------------------------------------|
B--12h13-15-13-12--10p9h10p9--8-7-8-7---5-4-5-4-|
G-----------------------------------------------|
D-----------------------------------------------|
A-----------------------------------------------|
E-----------------------------------------------|



e-----------------------------------------------|
B-----------------------------------------------|
G---------2-------------------------------------|
D--2-3-4----3------(5)--------------------------|
A-----------------------------------------------|
E-----------------------------------------------|

^ Use the whammy bar on the 5 or, just play the 7th fret on the D string




************************************

| /   slide up
| \   slide down
| h   hammer-on
| p   pull-off
| ~   vibrato
| +   harmonic
| x   Mute note
| b   Bend
| pb  Pre-bend
| br  Bend release
| pbr Pre-bend release
| brb Bend release bend

************************************
Tap to rate this tab
# A B C D E F G H I J K L M N O P Q R S T U V W X Y Z