Song name
# A B C D E F G H I J K L M N O P Q R S T U V W X Y Z

Descendents - Good Good Things tab

 BAND: Descendents
 SONG: Good Good Things
 STANDARD TUNING: EADGBe
 Tabbed by: Shaun Booth
 Email: concern_in_vain@hotmail.com


 verse (no bass first time round for first 2 measures)
 
 e|------------------------------------|
 B|------------------------------------|
 G|------------------------------------|
 D|------------------------------------|
 A|------------------------------------|
 E|------------------------------------|
 
 e|------------------------------------|
 B|------------------------------------|
 G|--2222222222222222-5555555555555555-|
 D|--2222222222222222-5555555555555555-|
 A|--0000000000000000-3333333333333333-|
 E|------------------------------------|
   |---------------------------------|
               palm mute
 
 
 pre-chorus
 
 e|--------------------------------------------------------------------|
 B|--------------------------------------------------------------------|
 G|-----------------------------------22222222222222222222222222222222-|
 D|--33333333333333333333333333333333-22222222222222222222222222222222-|
 A|--33333333333333333333333333333333-00000000000000000000000000000000-|
 E|--11111111111111111111111111111111----------------------------------|
 
 
 e|-------------------------------------------------------------------------------5-|
 B|-----------------------------------------------------------------------------5---|
 G|--55555555555555555555555555555555-----------------------------------2-55-77-----|
 D|--55555555555555555555555555555555-33333333333333333333333333333333--------------|
 A|--33333333333333333333333333333333-33333333333333333333333333333333--------------|
 E|-----------------------------------11111111111111111111111111111111--------------|
 
 
 chorus

 e|-----------------------------------------------5-|
 B|---------------------------------------------5---|
 G|--55555555555555555555555555555555-----55-77-----|
 D|--55555555555555555555555555555555---7-----------|
 A|--33333333333333333333333333333333---------------| 
 E|-------------------------------------------------|
 

 end of chorus
 
 e|-----------------------------------|
 B|-----------------------------------|
 G|-----------------------------------|
 D|--3333333333333333---2---5---3---2-|
 A|--3333333333333333---2---5---3---2-|
 E|--1111111111111111---0---3---1---0-|
 
 
 
 basically REPEAT THAT TWICE whilst palm muting the entire second verse.


 structure:
 nothing x2
 verse x2 pm
 prechorus x1
 chorus x3
 end of chorus x1
 verse x4 pm
 prechorus x1
 chorus x3
 end of chorus x1 (last note, let ring)



  
 
 there are many different ways to play the little riff
 it really depends on how fast you can move your fingers
 and what feels most comfortable for you
 
 here are a couple of others ways:
 
 
 e|----------05-|-----------5-|---------05-|
 B|----11-33----|------33-5---|------------|
 G|--2----------|-2-55--------|---55-77----|
 D|-------------|-------------|-7----------|
 A|-------------|-------------|------------|
 E|-------------|-------------|------------|
 




 just listen to the song to get the timing

 email me if you have any questions/queries
 
 
 
 
 
Tap to rate this tab
# A B C D E F G H I J K L M N O P Q R S T U V W X Y Z