Song name
# A B C D E F G H I J K L M N O P Q R S T U V W X Y Z

Descendents - Clean Sheets tab

#

Date: Sat, 27 Sep 1997 11:29:42 -0500 (CDT)
From: skunx@ix.netcom.com (Donna DeCarolis)
Subject: "Clean Sheets" by Descendents

-----------------------------------------------------------------------------
			CLEAN SHEETS- Descendents
-----------------------------------------------------------------------------

tabbed by: SkunX (skunx@ix.netcom.com)

thank you Pancreas@vt.edu for posting this solo that i put on this tab!!
also, please excuse any lyrical-type fuckups, but i dont have a lyric
sheet for this rhyme yo.


CHORDS

   Eii   D    G     C    B

|----------------------------|
|----------------------------|
|---9----7----------5----4---|
|---9----7----5-----5----4---|
|---7----5----5-----3----2---|
|-------------3--------------|


Intro: Eii, D (x4)
       G, D, Eii, C, B, C

Verse1:

G			B            C
clean sheets mean a lot to a guy who sleeps on the floor
G		   B                   C
i wanted your love and a shelf on your dresser drawer
G                    B                     C
you tucked me in and stopped my tossin and turning
    G                              B                    C
but i turned back the covers and i saw those sheets are dirty

CHORUS:

Eii                D                    Eii      C
even though you'll never come clean you know its true
G                D         B      C
those sheets are dirty and so are you

Verse2:
the warmth of a bed to a guy who sleeps on the floor
was enough to perpetuate all the lies i heard before
now i wanna hold you gotta hold my pillow instead
cause my pillow will never lie or be with a stranger in my bed

CHORUS

Bridge:

B                     C                G
wheres the love i was looking for? its out the door
B                 C                  G
i'm afraid to see you anymore so its back on the floor
      B                C
cause those sheets are dirty

Eii, D (x3)

Solo:

e----------------------------------------------
B-----------------------3p1p0h1--3p1p0---------
G----------------4p2h4-------------------------
D---------5p4h5--------------------------------
A--7p5h7---------------------------------------
E----------------------------------------------

e--7r5-3----3-----3----------0--3--2-----0-----
B--------7-----5------3~~~~~----------3------1-
G----------------------------------------------
D----------------------------------------------
A----------------------------------------------
E----------------------------------------------

e-----------2-----3~~--3--2------3-2----7-5-3--
B-0-0--3-3----3-0------------3-------3---------
G----------------------------------------------
D----------------------------------------------
A----------------------------------------------
E----------------------------------------------

e---------------14---------15------------------
B-12-12--15--15----15--12----------------------
G----------------------------------------------
D----------------------------------------------
A----------------------------------------------
E----------------------------------------------

Verse3:
woke up this morning alone on the floor
thinking about those clean sheets and the way it was before
when i looked in the mirror i saw your face & thought of the past
now i know how dirty you are i took my fist and smashed the glass

CHORUS (x2)
Tap to rate this tab
# A B C D E F G H I J K L M N O P Q R S T U V W X Y Z