Song name
# A B C D E F G H I J K L M N O P Q R S T U V W X Y Z

Descendents - Im Not A Loser tab

band:descendents 
song:i'm not a loser
album:Milo goes to College
my personal anthem

intro *-3-4x
e|-------------------------------------|
b|-------------------------------------|
g|-9*--10*--12*--10*--9-10-12-10-9-7-9-|
d|-9---10---12---10---9-10-12-10-9-7-9-|
a|-7----8---10----8---7--8-10--8-7-5-7-|
e|-------------------------------------|

verse (u say that i'm a loser.......) x6 *6x
e|-----------------------------|
b|-----------------------------|
g|-7*---12-10--9*---9-10-12-10-|
d|-7----12-10--9----9-10-12-10-|
a|-5----10--8--7----7--8-10--8-|
e|-----------------------------|

play intro twice than

bridge (spendin all ur money....)
e|------------------|
b|------------------|
g|-9-10-12-10-9-7-9-|
d|-9-10-12-10-9-7-9-|
a|-7--8-12--8-7-5-7-|
e|------------------|

than play verse 4x

than play introx2

ending (ur a fuckin son of a bitch....) *10 #6
e|-\---x2-----/---\--------x2-----------/-|
b|----------------------------------------|
g|-7*--12#--10#---7*--12-10---10-9-10-12--|
d|-7---12---10----7---12-10---10-9-10-12--|
a|-5---10----8----5---10--8----8-7--8-10--|
e|----------------------------------------|
Tap to rate this tab
# A B C D E F G H I J K L M N O P Q R S T U V W X Y Z