Song name
# A B C D E F G H I J K L M N O P Q R S T U V W X Y Z

Descendents - Silly Girl tab

Descendents 
Silly Girl 
I Don't Wanna Grow Up

Standard Tuning: EADGBe
Distortion

KEY:
~ = let ring

If you listen to the song you'll know this is correct. Trust me.

INTRO (0:00) 

e|-------------------------------------------------------------------------|
B|-------------------------------------------------------------------------|
G|--------------------(9)(7)(5)---------------------(9)(7)(5)--------------|
D|---------------------9~-7~-5~----------------------9~-7~-5~--------------|
A|2-5-2~-3-5-3~-2-5-2~-7~-5~-3~-2-5-2~-3-5-3~-2-5-2~-7~-5~-3~--------------|
E|-------------------------------------------------------------------------|

VERSE (0:10) "It started on a summer Sunday..."

e|-------------------------------------------------------------------------|
B|-------------------------------------------------------------------------|
G|----------------5555555555555555----------------5555555555555555---------|
D|5555555555555555555555555555555555555555555555555555555555555555---------|
A|5555555555555555333333333333333355555555555555553333333333333333---------|
E|3333333333333333----------------3333333333333333-------------------------|

CHORUS (0:20) "Silly Girl, I'm begging you..."

e|-------------------------------------------------------------------------|
B|-------------------------------------------------------------------------|
G|4-7-4~-5-7-5~--7777777777777777-4-7-4~-5-7-5~----------------------------|
D|4-7-4~-5-7-5~--7777777777777777-4-7-4~-5-7-5~-5555555555555555-----------|
A|2-5-2~-3-5-3~--5555555555555555-2-5-2~-3-5-3~-5555555555555555-----------|
E|----------------------------------------------3333333333333333-----------|

VERSE (0:31) "I had to run to get you..."

e|-------------------------------------------------------------------------|
B|-------------------------------------------------------------------------|
G|----------------5555555555555555----------------5555555555555555---------|
D|5555555555555555555555555555555555555555555555555555555555555555---------|
A|5555555555555555333333333333333355555555555555553333333333333333---------|
E|3333333333333333----------------3333333333333333-------------------------|

CHORUS (0:41) "Silly Girl, I'm begging you..."

e|-------------------------------------------------------------------------|
B|-------------------------------------------------------------------------|
G|4-7-4~-5-7-5~--7777777777777777-4-7-4~-5-7-5~----------------------------|
D|4-7-4~-5-7-5~--7777777777777777-4-7-4~-5-7-5~-5555555555555555-----------|
A|2-5-2~-3-5-3~--5555555555555555-2-5-2~-3-5-3~-5555555555555555-----------|
E|----------------------------------------------3333333333333333-----------|

BRIDGE (0:51)

e|-------------------------------------------------------------------------|
B|-------------------------------------------------------------------------|
G|--------------------(9)(7)(5)---------------------(9)(7)(5)--------------|
D|---------------------9~-7~-5~----------------------9~-7~-5~--------------|
A|2-5-2~-3-5-3~-2-5-2~-7~-5~-3~-2-5-2~-3-5-3~-2-5-2~-7~-5~-3~--------------|
E|-------------------------------------------------------------------------|

"They said to stay away..."
e|-------------------------------------------------------------------------|
B|-------------------------------------------------------------------------|
G|--------------------(9)(7)(5)---------------------(9)(7)(5)--------------|
D|---------------------9~-7~-5~----------------------9~-7~-5~--------------|
A|2-5-2~-3-5-3~-2-5-2~-7~-5~-3~-2-5-2~-3-5-3~-2-5-2~-7~-5~-3~--------------|
E|-------------------------------------------------------------------------|

VERSE (1:12) "They made me go away..."

e|-------------------------------------------------------------------------|
B|-------------------------------------------------------------------------|
G|----------------5555555555555555----------------5555555555555555---------|
D|5555555555555555555555555555555555555555555555555555555555555555---------|
A|5555555555555555333333333333333355555555555555553333333333333333---------|
E|3333333333333333----------------3333333333333333-------------------------|

CHORUS (1:22) "Silly Girl, I'm begging you..."

e|-------------------------------------------------------------------------|
B|-------------------------------------------------------------------------|
G|4-7-4~-5-7-5~--7777777777777777-4-7-4~-5-7-5~----------------------------|
D|4-7-4~-5-7-5~--7777777777777777-4-7-4~-5-7-5~-5555555555555555-----------|
A|2-5-2~-3-5-3~--5555555555555555-2-5-2~-3-5-3~-5555555555555555-----------|
E|----------------------------------------------3333333333333333-----------|

VERSE (1:33) "When you're just a silly boy..."

e|-------------------------------------------------------------------------|
B|-------------------------------------------------------------------------|
G|----------------5555555555555555----------------5555555555555555---------|
D|5555555555555555555555555555555555555555555555555555555555555555---------|
A|5555555555555555333333333333333355555555555555553333333333333333---------|
E|3333333333333333----------------3333333333333333-------------------------|

CHORUS (1:43) "Silly Girl, I'm begging you..."

e|-------------------------------------------------------------------------|
B|-------------------------------------------------------------------------|
G|4-7-4~-5-7-5~--7777777777777777-4-7-4~-5-7-5~----------------------------|
D|4-7-4~-5-7-5~--7777777777777777-4-7-4~-5-7-5~-5555555555555555-----------|
A|2-5-2~-3-5-3~--5555555555555555-2-5-2~-3-5-3~-5555555555555555-----------|
E|----------------------------------------------3333333333333333-----------|

OUTRO (1:53)

e|-------------------------------------------------------------------------|
B|-------------------------------------------------------------------------|
G|--------------------(9)(7)(5)---------------------(9)(7)(5)--------------|
D|---------------------9~-7~-5~----------------------9~-7~-5~--------------|
A|2-5-2~-3-5-3~-2-5-2~-7~-5~-3~-2-5-2~-3-5-3~-2-5-2~-7~-5~-3~--------------|
E|-------------------------------------------------------------------------|

"They said to stay away..."
e|-------------------------------------------------------------------------|
B|-------------------------------------------------------------------------|
G|--------------------(9)(7)(5)---------------------(9)(7)(5)----end-------|
D|---------------------9~-7~-5~----------------------9~-7~-5~-5~---on------|
A|2-5-2~-3-5-3~-2-5-2~-7~-5~-3~-2-5-2~-3-5-3~-2-5-2~-7~-5~-3~-5~----this---|
E|------------------------------------------------------------3~-----------|

Have fun.

Tap to rate this tab
# A B C D E F G H I J K L M N O P Q R S T U V W X Y Z