Song name
# A B C D E F G H I J K L M N O P Q R S T U V W X Y Z

Desecration - Bacterial Breakdown tab

Desecration: Bacterial Breakdown

Tabbed by Slayerized 88
Please send any corrections, additions, comments etc to hynes666@hotmail.com

Tuning: C# - All strings down 1.5 steps

. = palm mute

Riff 1
|--------------------------------------------------| 
|--------------------------------------------------| 
|--------------------------------------------------| All 0s played 
|---------------------6-----------8------------8---| several times
|---6-5---6-5---6-5-----5---8-7-----7---8-7------7-| 
|-0-----0-----0-----0-----0-----0-----0------0-----| 
     .           .     .	  . 	  .	  .     .      .

Riff 2
|-----------------------------------------------------| 
|-----------------------------------------------------| 
|-----------------------------------------------------| All 0s played 
|---------------------6--------------------------8----| several times
|---6-5---6-5---6-5-----5---8-7----8-7---8-7---7--7-8-| 
|-0-----0-----0-----0-----0-----0-----0------0--------| 
     .           .     .	  . 	  .	  .     .      .

Riff 3
|------------------| 
|------------------| 
|------------------| All 0s played several times
|-9---10---11---10-| 
|-7-0-8--0-9--0-8--| 
|------------------| 
          .    .    .   

Riff 4
|---------| 
|---------| 
|---------| trem picked x 3
|---------| 
|---------| 
|-0-1-2-1-|

Riff 5
|---------| 
|---------| 
|---------| trem picked x 1
|---------| 
|---------| 
|-0-1-2-3-|  

Riff 4 x 3
Riff 5 x 1

Riff 6 x 2
|-------------------------------------------------------------------| 
|-------------------------------------------------------------------| 
|-------------------------------------------------------------------| 
|-4------4-5--------5------5-6--------4------4-5--------5------5-6-5| 
|-2------2-3--------3------3-4--------2------2-3--------3------3-4-3| 
|---0000-----000000---0000-----000000---0000-----000000---0000------| 
    ....     ......   ....     ......   ....     ......   ....

Riff 4 x 3
Riff 5 x 1
Riff 4 x 3
Riff 5 x 1
Riff 6 x 2

Riff 7 x 1
|---------------------------------------------------| 
|---------------------------------------------------| 
|---------------------------------------------------| 
|--9------------------------7-----------------------| 
|--7----8-7-----------------5----6-5----------------| 
|----00-6-5-0-1-2-3-2-1-00----00-4-3-0-1-2-3-2-1-00-| 
     ..     ----------- ..    ..     ----------- ..
             trem pick                trem pick


Riff 8
|------------------------------------|----------------| 
|------------------------------------|----------------| 
|------------------------------------|------x3--------| 
|--9------------------------7--------|----------------| 
|--7----8-7-----------------5----6-5-|----------------|
|----00-6-5-0-1-2-3-2-1-00----00-4-3-|-0-1-2-3-2-1-00-| 
     ..     ----------- ..    ..       ----------- ..
             trem pick                  trem pick

Riff 8 ending
|-----------------| 
|-----------------| 
|-----------------| 
|-----------------| 
|---------5-4-2-3-|
|-0-1-2-3-3-2-0-1-| 
  -------
   trem

Riff 1
Riff 2

Riff 9 
|-----------------| 
|-----------------| 
|-----------------| x 4 trem picked
|-----------------| x 4 palm muted
|-----------------| 
|-0-1-2-3-2-1-0-1-| 


Riff 10
|----------------------------------------------------| 
|----------------------------------------------------| 
|----------------------------------------------------| 
|--9------------------------7------------------------| 
|--7----8-7-----------------5----6-5-----------------|
|----00-6-5-00-000-000-000----00-4-3-00-000-000-000--| 
     ..     .. ... ... ...    ..     .. ... ... ... 

Riff 10 continued
|---------------------------------------------------| 
|---------------------------------------------------| 
|---------------------------------------------------| 
|--9--------------------------7---------------------| 
|--7----8-7-------------------5-6-5-----------------|
|----00-6-5-0-2-3-5-3-2-0-2-3---4-3-00-000-000-000--|
     ..     -----------------       .. ... ... ...
               trem picked 

Riff 10 ending
|--------------------------------------------------------| 
|--------------------------------------------------------| 
|--------------------------------------------------------| 
|--------------------------------------------------------| 
|-222-222-222-2222222-22-222-222-222-222-222-222-2222222-| 
|-000-000-000-0000000-00-000-000-000-000-000-000-0000000-| 
  ... ... ... ....... .. ... ... ... ... ... ... .......   

Riff 10 with palm muted 0s rather than trem part

Riff 1
|----------------|--ending--| 
|-------x3-------|--0n-4th--| 
|----------------|---time---| 
|----------------|----------| 
|----------------|-5-4-2-3--| 
|-0-1-2-3-2-1-00-|-3-2-0-1--| 
              ..



Tap to rate this tab
 
# A B C D E F G H I J K L M N O P Q R S T U V W X Y Z