Song name
# A B C D E F G H I J K L M N O P Q R S T U V W X Y Z

Desecration - No More Room In The Freezer tab

First of all, i did NOT transcribe this tab! This tab was transcribed by STRAKER! All credit must go to him!
Now, have fun with this Desecration song from their album Gore and Perversion!


Band:  (DESECRATION)
Album: (GORE AND PERVERSION 2)
Song:  (NO MORE ROOM IN THE FREEZER)

Copyright (c)  (COPRO) (2003)
Version 1.0 - (24.06.03)

Transcribed By: (STRAKER)
Email:          (STRAKER666@HOTMAIL.COM)


*  - palm mute           /  - slide up to
\  - slide down to       ~  - vibrato
h  - hammer on           b  - Bend
p  - pull off            Suffixes for bend
t  - tap                 f  - full bend    h - half bend
ph - pinched harmonic    q  - quarter bend t - tap bend
*  - see comment         ^  - Hold bend    r release bend
x  - Stuccatto           ~  - vibrato bend
,  - slight palm mute    () - ghost note, sustained note
"  - tremolo note        <> - Trill

Tunning C


RIFF 1 Guitar 1, (repeat X6)
|-------------------------------------------------------------------|
|-------------------------------------------------------------------|
|-------------------------------------------------------------------|
|---0-3/4-5---0-3/4-5---0-3/4-5-------------------------------------|
|-2-0-1/2-3-2-0-1/2-3-2-0-1/2-3--4--6-------------------------------|
|-0---------0---------0----------2--4-------------------------------|
    *         *         *
RIFF 1a
Guitar 2
|-------------------------------------------------------------------|
|-------------------------------------------------------------------|
|-------------------------------------------------------------------|
|-------------------------------------------------------------------|
|-2---------2--------2-----------4--6-------------------------------|
|-0---------0--------0-----------2--4-------------------------------|

Guitar 2 plays riff 1 at (0:35) X$

RIFF 2 Guitar 1 repeat X4
|-------------------------------------------------------------------|
|-------------------------------------------------------------------|
|-------------------------------------------------------------------|
|------------------5/6-5--------------------------------------------|
|------------------3/4-3--------------------------------------------|
|-0--0--0--0--0--0-------111111-111111--4-4-1-----------------------|
  *  *  *  *  *  *       ****** ******  * *
Guitar 2 plays riff 2 at (0:55) repeat X3

RIFF 3 guitar 1           			(2nd ending)
|--------------------------------------------|-----------------------|
|--------------------------------------------|-----------------------|
|------------------------------------------*-|-----------------------|
|--------------------------------------------|-----------------------|
|-2--------(2)---------3--------(3)--------*-|-----------------------|
|-0--------(0)---------1--------(1)----------|--4-4-1----------------|
					        * *
Guitar 2           				(2nd ending)
|--------------------------------------------|-----------------------|
|--------------------------------------------|-----------------------|
|------------------------------------------*-|-----------------------|
|--------------------------------------------|-----------------------|
|------------------------------------------*-|-----------------------|
|-000000-000000-000000--111111-111111-111111-|--4-4-1----------------|
  ****** ****** ******  ****** ****** ******    * *

PLAY RIFF 2
PLAY RIFF 1
PLAY RIFF 2
PLAY RIFF 3
PLAY RIFF 2

RIFF 4 both guitars (repeat X 4)
|-------------------------------------------------------------------|
|-------------------------------------------------------------------|
|-------------------------------------------------------------------|
|-------------------------------------------------------------------|
|------3-2----------------------------------------------------------|
|-0000-----0000-3-3-2-----------------------------------------------|
  ****     **** * *

END
Tap to rate this tab
# A B C D E F G H I J K L M N O P Q R S T U V W X Y Z