Song name
# A B C D E F G H I J K L M N O P Q R S T U V W X Y Z

Desert Sessions - Rickshaw tab

From desert sessions vol. 6

standard tuning

Verse

|-------------------------------------------------------------------------|
|-------------------------------------------------------------------------|
|-------------------------------------------------------------------------|
|------6-6-6-6-7-7-7-7-7-7-7-7--12-12-12-12-12-12-12-12-12-12-12----------|
|------7-7-7-7-6-6-6-6-6-6-6-6--10-10-10-10-10-10-10-10-10-10-10----------|
|------0-0-0-0-0-0-4-4-4-4-4-4---8--8--8--8--8--8--8--8--8--8--8----------|


Chorus

|-----------------------------------------------------------------------|
|-----------------------------------------------------------------------|
|-----------------------------------------------------------------------|
|-------7---7--7---9----9--9-----5-----10---10-10-----------------------|
|-------7---7--7---7----7--7-----5-----10---10-10-----------------------|
|-------5---5--5---0----0--0-----3-----8----8--8------------------------|


sorry no solo as yet still working on it!
Tap to rate this tab
# A B C D E F G H I J K L M N O P Q R S T U V W X Y Z