Song name
# A B C D E F G H I J K L M N O P Q R S T U V W X Y Z

Desert Sessions - Crawl Home tab

Song: Crawl Home                                    
Artist: Desert Sessions
Tunning: Standard

Tabbed By: Indie Nation

Josh Homme - Guitar 1
    
E||-----------------------------------------------------|-------|-------|
B||-----------------------------------------------------|-------|-------|
G||-----------------------------------------------------|-------|-------|
D||-----------------------------------------------------|-------|-------|
A||-----------------------------------------------------|-------|-------|
E||-----------------------------------------------------|-------|-------|

-------|-------|-------------------------|-------------------|-------|
-------|-------|-------------------------|-------------------|-------|
-------|-------|-------------------------|-------------------|-------|
-------|-------|-------------------------|-------------------|-------|
-------|-------|-------------------------|-------------------|-------|
-------|-------|-------------------------|-------------------|-------|

--------------------------------------------------------------------------|
--------------------------------------------------------------------------|
--------------------------------------------------------------------------|
--------------------------------------------------------------------------|
-----------------------------------------------------------0--2-----------|
-----0--------------------------------------------------3--------0--3--0--|

-----------------------------|--------------------------|
-----------------------------|--------------------------|
-----------------------------|--------------------------|
-----------------------------|--------------------------|
-----------------------------|-----------0--2-----------|
--1--1--1--1--1-----1--1--0--|-----0--3--------0--3--0--|

--------------------------|--------------------------|
--------------------------|--------------------------|
--------------------------|--------------------------|
--------------------------|--------------------------|
--------------------------|-----------0--2-----------|
--1--1--1--1--1--1--1--0--|-----0--3--------0--3--0--|

--------------------------|--------------------------|
--------------------------|--------------------------|
--------------------------|--------------------------|
--------------------------|--------------------------|
--------------------------|-----------0--2-----------|
--1--1--1--1--1--1--1--0--|-----0--3--------0--3--0--|

--------------------------|--------------------------|
--------------------------|--------------------------|
--------------------------|--------------------------|
--------------------------|--------------------------|
--------------------------|-----------0--2-----------|
--1--1--1--1--1--1--1--0--|-----0--3--------0--3--0--|

--------------------------|--------------------------|
--------------------------|--------------------------|
--------------------------|--------------------------|
--------------------------|--------------------------|
--------------------------|-----------0--2-----------|
--1--1--1--1--1--1--1--0--|-----0--3--------0--3--0--|

--------------------------|--------------------------|
--------------------------|--------------------------|
--------------------------|--------------------------|
--------------------------|--------------------------|
--------------------------|-----------0--2-----------|
--1--1--1--1--1--1--1--0--|-----0--3--------0--3--0--|

--------------------------|--------------------------|
--------------------------|--------------------------|
--------------------------|--------------------------|
--------------------------|--------------------------|
--------------------------|-----------0--2-----------|
--1--1--1--1--1--1--1--0--|-----0--3--------0--3--0--|

--------------------------|-----|--0--0--7--0--0--0--7--0--|
--------------------------|-----|--------------------------|
--------------------------|-----|--------------------------|
--------------------------|-----|--------------------------|
--------------------------|-----|--------------------------|
--1--1--1--1--1--1--1--0--|-----|--------------------------|

--0--0--7--0--0--0--7--0--|--0--0--7--0--0--0--7--0--|
--------------------------|--------------------------|
--------------------------|--------------------------|
--------------------------|--------------------------|
--------------------------|--------------------------|
--------------------------|--------------------------|

--0--0--7--0--0--0--7--0--|--0--0--7--0--0--0--7--0--|
--------------------------|--------------------------|
--------------------------|--------------------------|
--------------------------|--------------------------|
--------------------------|--------------------------|
--------------------------|--------------------------|

--0--0--7--0--0--0--7--0--|--0--0--7--0--0--0--7--0--|
--------------------------|--------------------------|
--------------------------|--------------------------|
--------------------------|--------------------------|
--------------------------|--------------------------|
--------------------------|--------------------------|

--0--0--7--0--0--0--7--0--|-------|-------|-------|-------|
--------------------------|-------|-------|-------|-------|
--------------------------|-------|-------|-------|-------|
--------------------------|-------|-------|-------|-------|
--------------------------|-------|-------|-------|-------|
--------------------------|-------|-------|-------|-------|

--------------------------|--------------------------|
--------------------------|--------------------------|
--------------------------|--------------------------|
--------------------------|--------------------------|
-----------0--2-----------|--------------------------|
-----0--3--------0--3--0--|--1--1--1--1--1--1--1--0--|

--------------------------|--------------------------|
--------------------------|--------------------------|
--------------------------|--------------------------|
--------------------------|--------------------------|
-----------0--2-----------|--------------------------|
-----0--3--------0--3--0--|--1--1--1--1--1--1--1--0--|

--------------------------|--------------------------|
--------------------------|--------------------------|
--------------------------|--------------------------|
--------------------------|--------------------------|
-----------0--2-----------|--------------------------|
-----0--3--------0--3--0--|--1--1--1--1--1--1--1--0--|

--------------------------|--------------------------|
--------------------------|--------------------------|
--------------------------|--------------------------|
--------------------------|--------------------------|
-----------0--2-----------|--------------------------|
-----0--3--------0--3--0--|--1--1--1--1--1--1--1--0--|

--------------------------|--------------------------|
--------------------------|--------------------------|
--------------------------|--------------------------|
--------------------------|--------------------------|
-----------0--2-----------|--------------------------|
-----0--3--------0--3--0--|--1--1--1--1--1--1--1--0--|

--------------------------|--------------------------|
--------------------------|--------------------------|
--------------------------|--------------------------|
--------------------------|--------------------------|
-----------0--2-----------|--------------------------|
-----0--3--------0--3--0--|--1--1--1--1--1--1--1--0--|

--------------------------|--------------------------|
--------------------------|--------------------------|
--------------------------|--------------------------|
--------------------------|--------------------------|
-----------0--2-----------|--------------------------|
-----0--3--------0--3--0--|--1--1--1--1--1--1--1--0--|

--------------------------|--------------------------|-----|
--------------------------|--------------------------|-----|
--------------------------|--------------------------|-----|
--------------------------|--------------------------|-----|
-----------0--2-----------|--------------------------|-----|
-----0--3--------0--3--0--|--1--1--1--1--1--1--1--0--|-----|

--0--0--7--0--0--0--7--0--|--0--0--7--0--0--0--7--0--|
--------------------------|--------------------------|
--------------------------|--------------------------|
--------------------------|--------------------------|
--------------------------|--------------------------|
--------------------------|--------------------------|

--0--0--7--0--0--0--7--0--|--0--0--7--0--0--0--7--0--|
--------------------------|--------------------------|
--------------------------|--------------------------|
--------------------------|--------------------------|
--------------------------|--------------------------|
--------------------------|--------------------------|

--0--0--7--0--0--0--7--0--|--0--0--7--0--0--0--7--0--|
--------------------------|--------------------------|
--------------------------|--------------------------|
--------------------------|--------------------------|
--------------------------|--------------------------|
--------------------------|--------------------------|


--0--0--7--0--0--0--7--0--|--0--0--7--0--0--0--7--0--|
--------------------------|--------------------------|
--------------------------|--------------------------|
--------------------------|--------------------------|
--------------------------|--------------------------|
--------------------------|--------------------------|

--0--0--7--0--0--0--7--0--|--0--0--7--0--0--0--7--0--|
--------------------------|--------------------------|
--------------------------|--------------------------|
--------------------------|--------------------------|
--------------------------|--------------------------|
--------------------------|--------------------------|

--0--0--7--0--0--0--7--0--|--0--0--7--0--0--0--7--0--|
--------------------------|--------------------------|
--------------------------|--------------------------|
--------------------------|--------------------------|
--------------------------|--------------------------|
--------------------------|--------------------------|

--0--0--7--0--0--0--7--0--|--0--0--7--0--0--0--7--0--|
--------------------------|--------------------------|
--------------------------|--------------------------|
--------------------------|--------------------------|
--------------------------|--------------------------|
--------------------------|--------------------------|
                           
--0--0--7--0--0--0--7--0--|--0--0--7--0--0--0--7--0--|-------|-------|-------|
--------------------------|--------------------------|-------|-------|-------|
--------------------------|--------------------------|-------|-------|-------|
--------------------------|--------------------------|-------|-------|-------|
--------------------------|--------------------------|-------|-------|-------|
--------------------------|--------------------------|-------|-------|-------|


-------|
-------|
-------|
-------|
-------|
-------|


  I think it's some harmonic notes                        
-------------------------------------------------------------------------|
----------------------------------------------------------x-----------x--|
--x----------------------------------------------------x-----x-----x-----|
----------------------------------------------------x-----------x--------|
-------------------------------------------------------------------------|
-------------------------------------------------------------------------|

------------------------------------------------|--------------------------|
--------------------------x--x------------x--x--|-----------x-----------x--|
--x--x--------------x--x--x--x------------x--x--|--x-----x-----x-----x-----|
--x--x--------------x--x------------------------|-----x-----------x--------|
------------------------------------------------|--------------------------|
------------------------------------------------|--------------------------|

--------------------------|--------------------------|
--------------x--x--x--x--|-----------x-----------x--|
--x--x--x--x--x--x--x--x--|--x-----x-----x-----x-----|
--x--x--x--x--------------|-----x-----------x--------|
--------------------------|--------------------------|
--------------------------|--------------------------|

--------------------------|--------------------------|
--------------x--x--x--x--|-----------x-----------x--|
--x--x--x--x--x--x--x--x--|--x-----x-----x-----x-----|
--x--x--x--x--------------|-----x-----------x--------|
--------------------------|--------------------------|
--------------------------|--------------------------|

--------------------------|--------------------------|
--------------x--x--x--x--|--------------------------|
--x--x--x--x--x--x--x--x--|--------------------------|
--x--x--x--x--------------|--------------------------|
--------------------------|-----------0--2-----------|
--------------------------|-----0--3--------0--3--0--|

--------------------------|--------------------------|
--------------------------|--------------------------|
--------------------------|--------------------------|
--3--3--3--3--3--3--3-----|--------------------------|
--1--1--1--1--1--1--1-----|-----------0--2-----------|
-----------------------0--|-----0--3--------0--3--0--|

--------------------------|--------------------------|
--------------------------|--------------------------|
--------------------------|--------------------------|
--3--3--3--3--3--3--3-----|--------------------------|
--1--1--1--1--1--1--1-----|-----------0--2-----------|
-----------------------0--|-----0--3--------0--3--0--|

--------------------------|--------------------------|
--------------------------|--------------------------|
--------------------------|--------------------------|
--3--3--3--3--3--3--3-----|--------------------------|
--1--1--1--1--1--1--1-----|-----------0--2-----------|
-----------------------0--|-----0--3--------0--3--0--|

--------------------------||
--------------------------||
--------------------------||
--3--3--3--3--3--3--3-----||
--1--1--1--1--1--1--1-----||
--------------------------||




Alain Johannes - Guitar 2

E||-------|-------|-------|-----|-----|-----|-----|-----|
B||-------|-------|-------|-----|-----|-----|-----|-----|
G||-------|-------|-------|-----|-----|-----|-----|-----|
D||-------|-------|-------|-----|-----|-----|-----|-----|
A||-------|-------|-------|-----|-----|-----|-----|-----|
E||-------|-------|-------|-----|-----|-----|-----|-----|

--------------------------|--------------------------|
--------------------------|--------------------------|
--------------------------|--------------------------|
--------------------------|--------------------------|
-----------0--2-----------|--------------------------|
-----0--3--------0--3--0--|--1--1--1--1--1--1--1--0--|

--------------------------|--------------------------|
--------------------------|--------------------------|
--------------------------|--------------------------|
--------------------------|--------------------------|
-----------0--2-----------|--------------------------|
-----0--3--------0--3--0--|--1--1--1--1--1--1--1--0--|

--------------------------|--------------------------|
--------------------------|--------------------------|
--------------------------|--------------------------|
--------------------------|--------------------------|
-----------0--2-----------|--------------------------|
-----0--3--------0--3--0--|--1--1--1--1--1--1--1--0--|

--------------------------|--------------------------|
--------------------------|--------------------------|
--------------------------|--------------------------|
--------------------------|--------------------------|
-----------0--2-----------|--------------------------|
-----0--3--------0--3--0--|--1--1--1--1--1--1--1--0--|

--------------------------|--------------------------|
--------------------------|--------------------------|
--------------------------|--------------------------|
--------------------------|--------------------------|
-----------0--2-----------|--------------------------|
-----0--3--------0--3--0--|--1--1--1--1--1--1--1--0--|

--------------------------|--------------------------|
--------------------------|--------------------------|
--------------------------|--------------------------|
--------------------------|--------------------------|
-----------0--2-----------|--------------------------|
-----0--3--------0--3--0--|--1--1--1--1--1--1--1--0--|

--------------------------|--------------------------|
--------------------------|--------------------------|
--------------------------|--------------------------|
--------------------------|--------------------------|
-----------0--2-----------|--------------------------|
-----0--3--------0--3--0--|--1--1--1--1--1--1--1--0--|

--------------------------|--------------------------|-------|
--------------------------|--------------------------|-------|
--------------------------|--------------------------|-------|
--------------------------|--------------------------|-------|
-----------0--2-----------|--------------------------|-------|
-----0--3--------0--3--0--|--1--1--1--1--1--1--1--0--|-------|

--------------------------|--------------------------|
--------------------------|--------------------------|
--------0-----------0-----|--------0-----------0-----|
--2--2-----2--0--0-----0--|--------------------------|
--------------------------|--4--4-----4--3--3-----3--|
--------------------------|--------------------------|

--------------------------|--------------------------|
--------------------------|--------------------------|
--------0-----------0-----|--------0-----------0-----|
--2--2-----2--0--0-----0--|--------------------------|
--------------------------|--4--4-----4--3--3-----3--|
--------------------------|--------------------------|

--------------------------|--------------------------|
--------------------------|--------------------------|
--------0-----------0-----|--------0-----------0-----|
--2--2-----2--0--0-----0--|--------------------------|
--------------------------|--4--4-----4--3--3-----3--|
--------------------------|--------------------------|
                           
--------------------------|--------------------------|-------|-------|-------|
--------------------------|--------------------------|-------|-------|-------|
--9--9--9--9--9--9--9--9--|--9--9--9--9--9--9--9--9--|-------|-------|-------|
--7--7--7--7--7--7--7--7--|--7--7--7--7--7--7--7--7--|-------|-------|-------|
--------------------------|--------------------------|-------|-------|-------|
--------------------------|--------------------------|-------|-------|-------|

-----|--------------------------|--------------------------|
-----|--------------------------|--------------------------|
-----|--------------------------|--------------------------|
-----|--------------------------|--------------------------|
-----|-----------0--2-----------|--------------------------|
-----|-----0--3--------0--3--0--|--1--1--1--1--1--1--1--0--|

--------------------------|--------------------------|
--------------------------|--------------------------|
--------------------------|--------------------------|
--------------------------|--------------------------|
-----------0--2-----------|--------------------------|
-----0--3--------0--3--0--|--1--1--1--1--1--1--1--0--|

--------------------------|--------------------------|
--------------------------|--------------------------|
--------------------------|--------------------------|
--------------------------|--------------------------|
-----------0--2-----------|--------------------------|
-----0--3--------0--3--0--|--1--1--1--1--1--1--1--0--|

--------------------------|--------------------------|
--------------------------|--------------------------|
--------------------------|--------------------------|
--------------------------|--------------------------|
-----------0--2-----------|--------------------------|
-----0--3--------0--3--0--|--1--1--1--1--1--1--1--0--|

--------------------------|--------------------------|
--------------------------|--------------------------|
--------------------------|--------------------------|
--------------------------|--------------------------|
-----------0--2-----------|--------------------------|
-----0--3--------0--3--0--|--1--1--1--1--1--1--1--0--|

--------------------------|--------------------------|
--------------------------|--------------------------|
--------------------------|--------------------------|
--------------------------|--------------------------|
-----------0--2-----------|--------------------------|
-----0--3--------0--3--0--|--1--1--1--1--1--1--1--0--|

--------------------------|--------------------------|
--------------------------|--------------------------|
--------------------------|--------------------------|
--------------------------|--------------------------|
-----------0--2-----------|--------------------------|
-----0--3--------0--3--0--|--1--1--1--1--1--1--1--0--|

--------------------------|--------------------------|-----|
--------------------------|--------------------------|-----|
--------------------------|--------------------------|-----|
--------------------------|--------------------------|-----|
-----------0--2-----------|--------------------------|-----|
-----0--3--------0--3--0--|--1--1--1--1--1--1--1--0--|-----|

--------------------------|--------------------------|
--------------------------|--------------------------|
--------0-----------0-----|--------0-----------0-----|
--2--2-----2--0--0-----0--|--------------------------|
--------------------------|--4--4-----4--3--3-----3--|
--------------------------|--------------------------|

--------------------------|--------------------------|
--------------------------|--------------------------|
--------0-----------0-----|--------0-----------0-----|
--2--2-----2--0--0-----0--|--------------------------|
--------------------------|--4--4-----4--3--3-----3--|
--------------------------|--------------------------|

--------------------------|--------------------------|
--------------------------|--------------------------|
--------0-----------0-----|--------0-----------0-----|
--2--2-----2--0--0-----0--|--------------------------|
--------------------------|--4--4-----4--3--3-----3--|
--------------------------|--------------------------|

--------------------------|--------------------------|
--------------------------|--------------------------|
--9--9--9--9--9--9--9--9--|--9--9--9--9--9--9--9--9--|
--7--7--7--7--7--7--7--7--|--7--7--7--7--7--7--7--7--|
--------------------------|--------------------------|
--------------------------|--------------------------|

--------------------------|--------------------------|
--------------------------|--------------------------|
--------0-----------0-----|--------0-----------0-----|
--2--2-----2--0--0-----0--|--------------------------|
--------------------------|--4--4-----4--3--3-----3--|
--------------------------|--------------------------|

--------------------------|--------------------------|
--------------------------|--------------------------|
--------0-----------0-----|--------0-----------0-----|
--2--2-----2--0--0-----0--|--------------------------|
--------------------------|--4--4-----4--3--3-----3--|
--------------------------|--------------------------|

--------------------------|--------------------------|
--------------------------|--------------------------|
--------0-----------0-----|--------0-----------0-----|
--2--2-----2--0--0-----0--|--------------------------|
--------------------------|--4--4-----4--3--3-----3--|
--------------------------|--------------------------|

--------------------------|--------------------------|-------|-------|-------|
--------------------------|--------------------------|-------|-------|-------|
--9--9--9--9--9--9--9--9--|--9--9--9--9--9--9--9--9--|-------|-------|-------|
--7--7--7--7--7--7--7--7--|--7--7--7--7--7--7--7--7--|-------|-------|-------|
--------------------------|--------------------------|-------|-------|-------|
--------------------------|--------------------------|-------|-------|-------|

-----|--------------------------|--------------------------|
-----|--------------------------|--------------------------|
-----|--------------------------|--------------------------|
-----|--------------------------|--------------------------|
-----|--------------------------|--------------------------|
-----|-----x--x--x--x--x--x--x--|--x--x--x--x--x--x--x--x--|

--------------------------|--------------------------|
--------------------------|--------------------------|
--------------------------|--------------------------|
--------------------------|--------------------------|
--------------------------|--------------------------|
--x--x--x--x--x--x--x--x--|--x--x--x--x--x--x--x--x--|

--------------------------|--------------------------|
--------------------------|--------------------------|
--------------------------|--------------------------|
--------------------------|--------------------------|
--------------------------|--------------------------|
--x--x--x--x--x--x--x--x--|--x--x--x--x--x--x--x--x--|

--------------------------|--------------------------|
--------------------------|--------------------------|
--------------------------|--------------------------|
--------------------------|--------------------------|
--------------------------|--------------------------|
--x--x--x--x--x--x--x--x--|--x--x--x--x--x--x--x--x--|

--------------------------|--------------------------|
--------------------------|--------------------------|
--------------------------|--------------------------|
--------------------------|--3--3--3--3--3--3--3-----|
-----------0--2-----------|--1--1--1--1--1--1--1-----|
-----0--3--------0--3--0--|-----------------------0--|

--------------------------|--------------------------|
--------------------------|--------------------------|
--------------------------|--------------------------|
--------------------------|--3--3--3--3--3--3--3-----|
-----------0--2-----------|--1--1--1--1--1--1--1-----|
-----0--3--------0--3--0--|-----------------------0--|

--------------------------|--------------------------|
--------------------------|--------------------------|
--------------------------|--------------------------|
--------------------------|--3--3--3--3--3--3--3-----|
-----------0--2-----------|--1--1--1--1--1--1--1-----|
-----0--3--------0--3--0--|-----------------------0--|

--------------------------|--------------------------||
--------------------------|--------------------------||
--------------------------|--------------------------||
--------------------------|--3--3--3--3--3--3--3-----||
-----------0--2-----------|--1--1--1--1--1--1--1-----||
-----0--3--------0--3--0--|--------------------------||
Tap to rate this tab
# A B C D E F G H I J K L M N O P Q R S T U V W X Y Z