Song name
# A B C D E F G H I J K L M N O P Q R S T U V W X Y Z

Desert Sessions - Johnny The Boy tab

Standard C tuning

Intro:

e----------------------------------------------------------------|
B----------------------------------------------------------------|
G---7-7--9-9-----7-7--9-9-----7-7--9-9----7-7--9-9---------------|
D---7-7--9-9-----7-7--9-9-----7-7--9-9----7-7--9-9---------------|
A---5-5--7-7-----5-5--7-7-----5-5--7-7----5-5--7-7---------------|
E----------------------------------------------------------------|

Build Up:

e----------------------------------------------------------------|
B----------------------------------------------------------------|
G------------------------10-8---7-7--9-9-------------------------|  x4
D---4-4-4--6-6-6--8-8-8--10-8---7-7--9-9-------------------------|
A---4-4-4--6-6-6--8-8-8--8--6---5-5--7-7-------------------------|
E---2-2-2--4-4-4--6-6-6------------------------------------------|

Main Riff:

e--------------------------------------------------------------------|
B--------------------------------------------------------------------|
G--7--7--7-7-X--10---7--7--7-7-X--12---7--7--7-7-X-10--6-6-6--10-10--|
D--7--5--7-7-X--10---7--7--7-7-X--12---7--7--7-7-X-10--6-6-6--10-10--|
A--5--5--5-5-X--8----5--5--5-5-X--10---5--5--5-5-X-8---4-4-4--8--8---|
E--------------------------------------------------------------------|

"Oh! Where is the solo?!" Fuck you. That's where.
Tap to rate this tab
 
# A B C D E F G H I J K L M N O P Q R S T U V W X Y Z