Song name
# A B C D E F G H I J K L M N O P Q R S T U V W X Y Z

Desert Sessions - A Girl Like Me tab

A Girl Like Me
From the album Desert Sessions 9&10

NORMAL TUNING

i really think this guitar part is just amazing...

verse...

E|---------------------------------------------------|
B|---------------------------------------------------|
G|------0---3-3-----0---3-3-----0---3-3-----0---3-3--|
D|----1---1-------1---1-------1---1-------1---1------|
A|--3-----------3-----------2-----------2------------|
E|---------------------------------------------------|

cHORUS...

E|------------------------------------------------------|
B|----------0-------2-0---0-2---------------------------|
G|------0-----0---0----------------0---3-3-----0---3-3--|
D|----3---3-----3-------3--------1---1-------1---1------|
A|--4--------------------------3-----------3------------|
E|------------------------------------------------------|

and thats about it i think...
Tap to rate this tab
 
# A B C D E F G H I J K L M N O P Q R S T U V W X Y Z