Song name
# A B C D E F G H I J K L M N O P Q R S T U V W X Y Z

Desert Sessions - Crawl Home tab

Intro:
Guitar 1.    (x4)
 C|-------------||
 G|-------------||
Eb|--9-9-11-11--||
Bb|--9-9-11-11--||
 F|--7-7--9--9--||
 C|-------------||


Intro:
Guitar 2.  (x3)
 C|-----------||
 G|-----------||
Eb|-----------||
Bb|--2-2-4-4--||
 F|--2-2-4-4--||
 C|--0-0-2-2--||


Riff 1:
Guitar 2.			(x4)
 C|-----------------------------------||
 G|-----------------------------------||
Eb|------------------------------7-6--||
Bb|--2-2-4-4--4-4-4-6-6-6-7-7-7--7-6--||
 F|--2-2-4-4--4-4-4-6-6-6-7-7-7--5-4--||
 C|--0-0-2-2--2-2-2-4-4-4-5-5-5-------||


Main Riff:
Both Guitars.
 C|------------------------------------------------------------------------||
 G|------------------------------------------------------------------------||
Eb|--11-11--11-11-11-14-11-11--11-11-11-16--11-11--11-11-11-14--9-9--9-12--||
Bb|--11-11--11-11-11-14-11-11--11-11-11-16--11-11--11-11-11-14--9-9--9-12--||
 F|---9--9---9--9--9-12--9--9---9--9--9-14---9--9---9--9--9-12--7-7--7-10--||
 C|------------------------------------------------------------------------||


Solo:
Guitar 2.
 C|----------------------------------------------------------------||
 G|----------------------------------------------------------------||
Eb|--11-11--11-11-11-11b-11--11-11-11-11b-11--11-11-11-9--9--9-12--||
Bb|--11-11--11-11-11-11b-11--11-11-11-11b-11--11-11-11-9--9--9-12--||
 F|---9--9---9--9--9--9b--9---9--9--9--9b--9---9--9--9-7--7--7-10--||
 C|----------------------------------------------------------------||


Interlude:
Guitar 2.
 C|-------------------------------------------||
 G|-------------------------------------------||
Eb|---------------------7-7-7-9-9-9-11-11-11--||
Bb|--4-4-4-6-6-6-7-7-7--7-7-7-9-9-9-11-11-11--||
 F|--4-4-4-6-6-6-7-7-7--5-5-5-7-7-7--9--9--9--||
 C|--2-2-2-4-4-4-5-5-5------------------------||
Tap to rate this tab
 
# A B C D E F G H I J K L M N O P Q R S T U V W X Y Z