Song name
# A B C D E F G H I J K L M N O P Q R S T U V W X Y Z

Desert Sessions - Cowards Way Out tab

Help us improve GuitareTab! Take a short survey!
Notes:
~ - Let Ring
h - Hammer-On
p - Pull-Off
 - Slide Down
/ - Slide Up

Intro:
G|-----------------------------------------|
D|-----------------------------------------|
A|-----------------------------------------|
E|--//9-------/16-1614---1412---12h14------|

Verse:                            fill
G|----------------------|--------------|-------------|
D|----------------------|------11------|-------------|
A|----------------------|---11----11---|-------7-----|
E|--9--9---9-9--9---9-9-|-9----------9-|--9--9---9-9-|

Break:
G|----------------------------------|
D|----------------------------------|
A|----------12-10-9---------9-------|
E|--7-9-10-------------9h10---10-9--|

Outro:                               fill
G|-------------------------------|-------------------|
D|-------------------------------|-------------------|
A|-------------------------------|-12-10-9-----------|
E|-9-9-9-9-9-9-9-9-9-9-9-9-9-9-9-|---------12-10-9-9-|

G|---------------------------------------------|
D|---------------------------------------------|
A|---------------------------------------------|
E|-10-10-10-10-10-10-9----10-10-10-10-10-10-9--|
Related for Cowards Way Out tab