Song name
# A B C D E F G H I J K L M N O P Q R S T U V W X Y Z

Desert Sessions - Monkey In The Middle tab

~ - Let Ring
h - Hammer-On
p - Pull-Off
 - Slide Down
/ - Slide Up

                                                     _
G|--------------------------------------------------| 
D|--------------------------------------------------|   
A|--------------------------------------------------|   
E|--2--2-2-2--2--2--2--2-2-2--2--2--2--2-2-2--2--2--|    
                                                          -- (x3)
G|----------------------------------------|              /
D|----------------------------------------|             /    
A|----------------------------------------|            /
E|--7--7-7-7-7/10-10-105---5-5-5--5-4-3--|___________/


G|--------------------------------------------------|
D|--------------------------------------------------| 
A|--------------------------------------------------|
E|--2--2-2-2--2--2--2--2-2-2--2--2--2--2-2-2--2--2--|

G|-------------------------------------|
D|-------------------------------------|
A|-------------------------------------|
E|--5--5--00--0--4-4-4-4-4-4-44-4-4-4--|

                                         _
G|-------------------------------------|  
D|-------------------------------------|   
A|--4--4-444-4/7-7-7-------------------|    
E|-------------------7---7-7-7--7-6-5--|     
                                              -- (x3)
G|-------------------------------------|     /
D|-------------------------------------|    /
A|-------------------------------------|   / 
E|--4-4-4-4-4-4--4-4-4-4-4-4-44-4-4-4--| _/


G|--------------------------------|
D|--------------------------------|
A|--2--2-2------------------------|
E|---------2-2-2-6-6-6-6-6-6-6-6--|

                                         _
G|------------------------------------|   
D|------------------------------------|    
A|--6--6-6/9-9-9-9--------------------|     
E|-----------------9--9-9-9-9--9-8-7--|      
                                              -- (x3)
G|-------------------------------------|     /
D|-------------------------------------|    /
A|-------------------------------------|   /  
E|--6-6-6-6--6-6-6--6-6--6-6-6--6-6-6--| _/ 


G|-------------------------------------|
D|-------------------------------------|
A|-------------------------------------|
E|--9-9-9-9-9--9-9--9--9-9-9-9-9-9--9--|

G|--------------------------------------------------------------------|
D|--------------------------------------------------------------------|
A|--------------------------------------------------------------------|
E|--8-8--8-8-8-8-8-8--8-8-8-8-8-8-8-8-8--8-8-8-8-8-8-8-8-8-8-8-8--8-8-|


G|-------------------------------------|
D|-------------------------------------|
A|-------------------------------------|
E|--5--5---0--0--4-4-4-4-4-4-44-4-4-4--| (x3)
Tap to rate this tab
# A B C D E F G H I J K L M N O P Q R S T U V W X Y Z