Song name
# A B C D E F G H I J K L M N O P Q R S T U V W X Y Z

Desert Sessions - Nenada tab

~ = VIBRATO
/ = SLIDE UP
 = SLIDE DOWN
) = BEND

Intro

Guitar 1

E|--------------------------------|
B|--------------------------------|
G|----9---9----9-9---999-777-9----|
D|--9-9-9-9-9--9-9-9-999-777-9-9--|
A|--9---9---9------9-----------9--|
E|--------------------------------|

PLAY THIS PART TWICE
E|----------------------------------------------------|
B|--10--12--10--12--10~-8~---12-12-12--10-10-10--8-7--|
G|----------------------------------------------------|
D|----------------------------------------------------|
A|----------------------------------------------------|
E|----------------------------------------------------|

THEN THIS


E|-------------------------------------------------------|
B|--10--10)~---------------------12-12-12--10-10-10-8-7--|
G|-------------------------------------------------------|
D|-------------------------------------------------------|
A|-------------------------------------------------------|
E|-------------------------------------------------------|

THEN THIS
E|-------------------------------------------------------|
B|--10--12--10--12--10~-8~---12-12-12--10-10-10--8-8/12--|
G|-------------------------------------------------------|
D|-------------------------------------------------------|
A|-------------------------------------------------------|
E|-------------------------------------------------------|

PART 2

GUITAR 1
E|-------------------------|
B|-------------------------|
G|-------------------------|
D|----5---5-------5---5----|
A|--5---5---5---6---6---6--|
E|-------------------------|

GUITAR 2
E|----------------------------------------------------------------|
B|----------------------------------------------------------------|
G|--7-7-7-7-7-7-7/12-12-12-12-12-12-127-7-7-7-7-7-7-7-7-7-8-8-----|
D|----------------------------------------------------------------|
A|----------------------------------------------------------------|
E|----------------------------------------------------------------|

PART 3

GUITAR 1


E|---------------------------------------------------|
B|---------------------------------------------------|
G|---------------------------------------------------|
D|--12-12-12-12-12-12-12-11-10-10-10-10-10-10-10-10--|
A|---------------------------------------------------|
E|---------------------------------------------------|

E|---------------------------------------------------|
B|---------------------------------------------------|
G|---------------------------------------------------|
D|--4--4--4--4--4--4--4--4--5--5--5--5--5--5--5--5---|
A|---------------------------------------------------|
E|---------------------------------------------------|


E|---------------------------------------------------|
B|---------------------------------------------------|
G|---------------------------------------------------|
D|--17-17-17-17-17-17-17-16-15-15-15-15-15-15-15-15--|
A|---------------------------------------------------|
E|---------------------------------------------------|

E|---------------------------------------------------|
B|---------------------------------------------------|
G|---------------------------------------------------|
D|--9--9--9--9--9--9--9--9--10-10-10-10-10-10-10-10--|
A|---------------------------------------------------|
E|---------------------------------------------------|

GUITAR 2

PLAY THIS TWICE

B|--10~10~10~10~10~10~10~10~10~10~10~10~10~10~10~10~10~10~10~10~~|

THEN THIS

B|--15~15~15~15~15~15~15~15~15~15~15~15~15~15~15~15~15~15~15~15~~|

tHEN THIS AGAIN

B|--10~10~10~10~10~10~10~10~10~10~10~10~10~10~10~10~10~10~10~10~~|

E|--------10------|
B|--10-10)---10)--|
G|----------------|


E|--------10----12----10---10-----|
B|--10-10)---10)---10)---8)---8)--|
G|--------------------------------|

E|--19-19-19--17-17-17--15--14--|
B|------------------------------|
G|------------------------------|

INTRO
PART 2
INTRO
PART 3
INTRO
PART 2
INTRO
PART 3
INTRO
Tap to rate this tab
# A B C D E F G H I J K L M N O P Q R S T U V W X Y Z