Guitaretab - guitar tabs
Song name
# A B C D E F G H I J K L M N O P Q R S T U V W X Y Z

Desert Sessions - Im Here For Your Daughter tab

-------------------------------------------------------------------------------
			Iím here for your daughter - Desert Sessions
-------------------------------------------------------------------------------
Tabbed by: Douglas Newman
Email: Doug_jim8@hotmail.com

Tuning: E A D G B e

   X3
e |-----------------------------------------------------|
B |--------9/10---9/10-----------9/10---9/10------------|
G |-----------------------------------------------------|
D |--------9/10---9/10-----------9/10---9/10------------|
A |-----------------------------------------------------|
E |---0----------------------0--------------------------|


e |------------------------------------------------------------------|
B |------------------------------------------------------------------|
G |-------------------13---------------------------------------------|
D |-------9-10/12--14-12-10-------------------14-x-------------------|
A |--------------------------(14)-12/11/9/11--------14-12/11-12-10/9-|
E |--0---------------------------------------------------------------|

    X2
e |-----------------------------------------------------|
B |-----------------------------------------------------|
G |---11/12-9--11-----11/12-9--11-----------------------|
D |---10----10--------10----10--------------------------|
A |---------------0-------------------------------------|
E |-8---------------------------------------------------|


e |-----------------------------------------------------|
B |-----9/10---9/10----------9/10---9/10----------------|
G |-----------------------------------------------------|
D |-----9/10---9/10----------9/10---9/10----------------|
A |-----------------------------------------------------|
E |-0--------------------0------------------------------|

e |------------------------------------------------------------------|
B |------------------------------------------------------------------|
G |-------------------13---------------------------------------------|
D |-------9-10/12--14-12-10-------------------14-x-------------------|
A |--------------------------(14)-12/11/9/11--------14-12/11-12-10/9-|
E |--0---------------------------------------------------------------|
[ Tab from: http://www.guitaretab.com/d/desert-sessions/83126.html ]
 X2
e |-----------------------------------------------------|
B |-----------------------------------------------------|
G |---11/12-9--11-----11/12-9--11-----------------------|
D |---10----10--------10----10--------------------------|
A |---------------0-------------------------------------|
E |-8---------------------------------------------------|


e |-----------------------------------------------------|
B |-----9/10---9/10----------9/10---9/10----------------|
G |-----------------------------------------------------|
D |-----9/10---9/10----------9/10---9/10----------------|
A |-----------------------------------------------------|
E |-0--------------------0------------------------------|

e |------------------------------------------------------------------|
B |------------------------------------------------------------------|
G |-------------------13---------------------------------------------|
D |-------9-10/12--14-12-10-------------------14-x-------------------|
A |--------------------------(14)-12/11/9/11--------14-12/11-12-10/9-|
E |--0---------------------------------------------------------------|

   X2
e |-----------------------------------------------------|
B |-----------------------------------------------------|
G |---11/12-9--11-----11/12-9--11-----------------------|
D |---10----10--------10----10--------------------------|
A |---------------0-------------------------------------|
E |-8---------------------------------------------------|


e |-----------------------------------------------------|
B |-----9/10---9/10----------9/10---9/10----------------|
G |-----------------------------------------------------|
D |-----9/10---9/10----------9/10---9/10----------------|
A |-----------------------------------------------------|
E |-0--------------------0------------------------------|

e |------------------------------------------------------------------|
B |------------------------------------------------------------------|
G |-------------------13---------------------------------------------|
D |-------9-10/12--14-12-10-------------------14-x-------------------|
A |--------------------------(14)-12/11/9/11--------14-12/11-12-10/9-|
E |--0---------------------------------------------------------------|

Just kind of repeat this pattern as many times as you like and if you want to make the 
bit slightly easier then just get rid of all the slides and stuff and just play how you 
most comfortable it still works.

| /  slide up
| \  slide down
| h  hammer-on
| p  pull-off
| ~  vibrato
| +  harmonic
| x  Mute note

This song is from Dessert Sessions Vol. 9 & 10
Related for Im Here For Your Daughter tab