Song name
# A B C D E F G H I J K L M N O P Q R S T U V W X Y Z

Desert Sessions - Covered In Punks Blood tab

Covered in Punks’ Blood
Desert Sessions
Drop d


INTRO

Guitar 1
e----------------------------------------------------------------------|
b------------18-18-18-18-18-18-18-18----------18-18-18-18-18-18-18-18--|
g----------------------------------------------------------------------| x3
d----------------------------------------------------------------------|
a----------------------------------------------------------------------|
D---0--3/12--------------------------------0-3/12----------------------|

Guitar 2
e------------------------------------------------------------------------------|
b------------18-18-18-18-18-18-18-18-------------------------------------------|
g------------------------------------------------------------------------------| x3
d------------------------------------------------------------------------------|
a-----------------------------------------------------15-15-15-15-15-15-15-15--|
D---0--3/12--------------------------------0-3/12------------------------------|

On the fourth time play it a bit longer;

Guitar 1
e----------------------------------------------------------------------------------------------|
b------------18-18-18-18-18-18-18-18----------18-18-18-18-18-18-18-18-18-18-18-18-18-18-18-18--|
g----------------------------------------------------------------------------------------------|
d----------------------------------------------------------------------------------------------|
a----------------------------------------------------------------------------------------------|
D---0--3/12--------------------------------0-3/12----------------------------------------------|


Guitar 2
e------------------------------------------------------------------------------------------------------|
b------------18-18-18-18-18-18-18-18-------------------------------------------------------------------|
g------------------------------------------------------------------------------------------------------|
d------------------------------------------------------------------------------------------------------|
a-----------------------------------------------------15-15-15-15-15-15-15-15-15-15-15-15-15-15-15-15--|
D---0--3/12--------------------------------0-3/12------------------------------------------------------|


MAIN

Both Guitars

e--------------------------------------------------------|
b--------------------------------------------------------|
g-------5-----------------------3------------------------|
d--------------------------------------------------------| x8
a--------5-----3-3-3-5-5-3----5-----3-3-3-5-5-3----------|
D----0----0------------------0---0-----------------------|


Back to INTRO but play do not play the extended part.

MAIN.

Drums only for 4 repeats.

Then play MAIN through fully.

e--------------------------------------------------------|
b--------------------------------------------------------|
g-------5-----------------------3------------------------|
d--------------------------------------------------------| x8
a--------5-----3-3-3-5-5-3----5-----3-3-3-5-5-3----------|
D----0----0------------------0---0-----------------------|

Finally play the intro trough to the end, you might want to adjust this slightly.

Guitar 1
e----------------------------------------------------------------------|
b------------18-18-18-18-18-18-18-18----------18-18-18-18-18-18-18-18--|
g----------------------------------------------------------------------| x3
d----------------------------------------------------------------------|
a----------------------------------------------------------------------|
D---0--3/12--------------------------------0-3/12----------------------|

Guitar 2
e------------------------------------------------------------------------------|
b------------18-18-18-18-18-18-18-18-------------------------------------------|
g------------------------------------------------------------------------------| x3
d------------------------------------------------------------------------------|
a-----------------------------------------------------15-15-15-15-15-15-15-15--|
D---0--3/12--------------------------------0-3/12------------------------------|


Guitar 1
e----------------------------------------------------------------------------------------------|
b------------18-18-18-18-18-18-18-18----------18-18-18-18-18-18-18-18-18-18-18-18-18-18-18-18--|
g----------------------------------------------------------------------------------------------|
d----------------------------------------------------------------------------------------------| x1
a----------------------------------------------------------------------------------------------|
D---0--3/12--------------------------------0-3/12----------------------------------------------|


Guitar 2
e------------------------------------------------------------------------------------------------------|
b------------18-18-18-18-18-18-18-18-------------------------------------------------------------------|
g------------------------------------------------------------------------------------------------------|  x1
d------------------------------------------------------------------------------------------------------|
a-----------------------------------------------------15-15-15-15-15-15-15-15-15-15-15-15-15-15-15-15--|
D---0--3/12--------------------------------0-3/12------------------------------------------------------|

Thanks.
Tap to rate this tab
 
# A B C D E F G H I J K L M N O P Q R S T U V W X Y Z