Song name
# A B C D E F G H I J K L M N O P Q R S T U V W X Y Z

Desert Sessions - Monster In The Parasol tab

Intro/Verse:
 C|-----------------------------|-----------------||
 G|-----------------------------|-----------------||
Eb|---6-6-6-6-6-6-6-6-6-6-6-6---|---4-4-4-4-4-4---||
Bb|---6-6-6-6-6-6-6-6-6-6-6-6---|---4-4-4-4-4-4---||
 F|---4-4-4-4-4-4-4-4-4-4-4-4---|---2-2-2-2-2-2---||
 C|-----------------------------|-----------------||


Verse Fill:
 C|---4---||
 G|---5---||
Eb|---4---||
Bb|-------||
 F|-------||
 C|-------||


Pre-Chorus:
 C|----------------------||
 G|----------------------||
Eb|----------------------||
Bb|---11-10-9---9-10-11--||
 F|-----------9----------||
 C|----------------------||


Riff 1:
 C|--------------------------------------------------------------------------||
 G|--------------------------------------------------------------------------||
Eb|---12-12-12-12-12-12--9-9-9-9-9-9--14-14-14-14-14-14--15-15-15-15-15-15---||
Bb|---12-12-12-12-12-12--9-9-9-9-9-9--14-14-14-14-14-14--15-15-15-15-15-15---||
 F|---10-10-10-10-10-10--7-7-7-7-7-7--12-12-12-12-12-12--13-13-13-13-13-13---||
 C|--------------------------------------------------------------------------||


Chorus:
Guitar 1.
 C|------------------------------------------------------------------------------||
 G|------------------------------------------------------------------------------||
Eb|---13-13-13-13-13--------------------------------13-12-13----------13-12-13---||
Bb|------------------14-14-14-14-14--12-12-12-12-12----------12-12-12------------||
 F|------------------------------------------------------------------------------||
 C|------------------------------------------------------------------------------||

Guitar 2.
 C|------------------------------||
 G|-------------------------11---||
Eb|--------------------9-11------||
Bb|--------11-10---11------------||
 F|---9--------------------------||
 C|------------------------------||


Ending:
 C|---------------------------||
 G|---------------------------||
Eb|---------------------------||
Bb|---11-10-9---9-10-11-9-11--||
 F|-----------9---------------||
 C|---------------------------||


DOTSTUDIO
Tap to rate this tab
# A B C D E F G H I J K L M N O P Q R S T U V W X Y Z