Song name
# A B C D E F G H I J K L M N O P Q R S T U V W X Y Z

Desert Sessions - Dont Drink Poison tab

Main Riff:
 C|------------------------|
 G|------------------------|
Eb|----------7--8-10-8-7---|
Bb|-----9-10---------------|
 F|--10--------------------|
 C|------------------------|

 C|------------------------------||
 G|-------------8-8------7-------||
Eb|------7-8-10-----10-8----8-7--||
Bb|--10--------------------------||
 F|------------------------------||
 C|------------------------------||


Chorus:
 C|----------------------------------------------------||
 G|----------------------------------------------------||
Eb|--------------------5-5-5-5--3-3-3-3----------------||
Bb|--5-5-5-5-5-5-5-5-5-5-5-5-5--3-3-3-3-5-5-5-5-5-5-5--||
 F|--5-5-5-5-5-5-5-5-5-3-3-3-3--1-1-1-1-5-5-5-5-5-5-5--||
 C|--3-3-3-3-3-3-3-3-3------------------3-3-3-3-3-3-3--||


Ending:
 C|-----||
 G|-----||
Eb|-----||
Bb|--5--||
 F|--5--||
 C|--3--||
Tap to rate this tab
# A B C D E F G H I J K L M N O P Q R S T U V W X Y Z