Song name
# A B C D E F G H I J K L M N O P Q R S T U V W X Y Z

Desert Sessions - Hangin Tree tab

Tuning: Standard Tuning (EADGBe)
Notes:  'Hanging Tree' is track #2 on 'The Desert Sessions Vol. 7 & 8'


Main Chords:
       E                   B
 e|---------|---------|---------|---------||
 B|---------|---------|---------|---------||
 G|---------|---------|---------|---------||
 D|-9-9-9-9-|-9-9-9-9-|---------|---------||
 A|-7-7-7-7-|-7-7-7-7-|-9-9-9-9-|-9-9-9-9-||
 E|-0-0-0-0-|-0-0-0-0-|-7-7-7-7-|-7-7-7-7-||


      A
 e|-------------|-------------||
 B|-------------|-------------||
 G|-------------|-------------||
 D|-14-14-14-14-|-14-14-14-14-||
 A|-12-12-12-12-|-12-12-12-12-||
 E|-------------|-------------||


Slide Solo:
 e|-16^-17^-16-|
 B|------------|
 G|------------|
 D|------------|
 A|------------|
 E|------------|

e|-161714------------||
B|-------16-17-19----||
G|----------------19-||
D|-------------------||
A|-------------------||
E|-------------------||


Lyrics:
 Could you fly away
 On I flee my own

 Round the hanging tree
 Swing in the breeze
 In the summer sun
 As we two are one

 Sway

 Can you see under my thumb?
 There you are

 Round the hanging tree
 Swing in the breeze
 In the summer sun
 As we two are one
Tap to rate this tab
# A B C D E F G H I J K L M N O P Q R S T U V W X Y Z