Guitaretab - guitar tabs
Song name
# A B C D E F G H I J K L M N O P Q R S T U V W X Y Z

Desfase - Pikoletos tab

DESFASE,PIKOLETOS.
Tabbed by GBM,gbome@mixmail.com.
  
GRUPO (BAND): DESFASE
CANCION (SONG): PIKOLETOS
AUTOR: gbome@mixmail.com

AFINACION: STANDARD (EADGBE)
SIMBOLOS (SIGNALS)

* = repetir varias veces (repeat a few times)

[ Tab from: http://www.guitaretab.com/d/desfase/27819.html ]
 INTRO Y VERSO (INTRO AND VERSE)
e |---------|
B |---------|
G |---------|
D |--4-5-2--|
A |--2-3-0--|
E |---------|
                                  
 ESTROFA (X4)
e |---------------|
B |---------------|
G |---------------|
D |--4*-5*--------|
A |--2*-3*-4*-5*--|
E |--------2*-3*--|
    

DESPUES DE LA ESTROFA (X2)

e |-----X*----X*----X*-----------|
B |-----X*----X*----X*-----------|
G |-----X*----X*----X*-----------|
D |-----X*----X*----X*-----------|
A |--4*-X*-4*-X*-4*-X*-4*-3-2-3--|
E |--2*-X*-2*-X*-2*-X*-2*-1-0-1--|

PUNTEO FINAL

e |------------------------|
B |------------------------|
G |------------------------|
D |-----------------14-16--|
A |-----14-16-14-15--------|
E |--15--------------------| 
:: Ultimate Guitar Archive :: 
http://www.ultimate-guitar.com 

Pikoletos chords by Desfase