Song name
# A B C D E F G H I J K L M N O P Q R S T U V W X Y Z

Design The Skyline - Under The Blood Driven Moon tab

Correct order but some things are played more than once.

D|-------------------|
A|-------------------|
F|-------------------|
C|-------------------|
G|-------------------|
C|3~~~~~~~~~~~~~~~~~~

D|---------------------------------------------------------------------|
A|---------------------------------------------------------------------|
F|---------------------------------------------------------------------|
C|---------------------------------------------------------------------|
G|4-3-2-1-1-3-2-1-4-3-2-1-1-3-2-1-4-3-2-1-1-3-2-1-1-3-2-1-1-3-2-1------|
C|--3-2-1---3-2-1---3-2-1---3-2-1---3-2-1---3-2-1---3-2-1---3-2-1------|
    . . .   . . .   . . .   . . .   . . .   . . .   . . . . . .

D|---------------------------------------------------------------------|
A|---------------------------------------------------------------------|
F|---------------------------------------------------------------------|
C|---------------------------------------------------------------------|
G|4-------1-------4-------1-------4-------1-------4-------1------------|
C|--3-2-1---3-2-1---3-2-1---3-2-1---3-2-1---3-2-1---3-2-1---3-2-1------|

D|-----------------------|
A|-----------------------|
F|-----------------------|
C|-----------------------|
G|-0-0-0000000-0-0-0-----|
C|-1-1-1111111-1-1-1-----|
   . . ....... . . .

D|------------------------------------------------------------------------|
A|------------------------------------------------------------------------|
F|------------------------------------------------------------------------|
C|------------------------------------------------------------------------|
G|-4-3-2-1-55555555--4-3-2-1-888888888-4-3-2-1-11111111-4-3-2-1-44444444--|
C|-4-3-2-1-----------4-3-2-1-----------4-3-2-1----------4-3-2-1-----------|
   . . . .           . . . .           . . . .          . . . .

D|-----------------------|
A|-----------------------|
F|-----------------------|
C|-----------------------|
G|-0~~~~~~~~~0~~~~~~~~~~~
C|-0~~~~~~~~~0~~~~~~~~~~~

D|------------------------------------------|
A|------------------------------------------|
F|------------------------------------------|
C|------------------------------------------|
G|4-3-2-1-1-3-2-1-4-3-2-1--0-0-0--0-0-0-----|
C|--3-2-1---3-2-1---3-2-1--1-1-1--1-1-1-----|
    . . .   . . .   . . .  . . .  . . .

D|-----------------------|
A|-----------------------|
F|-----------------------|
C|-----------------------|
G|-0-0-0--0-0-0--0-0-0---|
C|-1-1-1--1-1-1--1-1-1---|
   . . .  . . .  . . .
Tap to rate this tab
 
# A B C D E F G H I J K L M N O P Q R S T U V W X Y Z