Song name
# A B C D E F G H I J K L M N O P Q R S T U V W X Y Z

Desmond Child - The Price Of Lovin You chords

Highlighted       Show chord diagrams
Tabbed by Jeppe
Tabbed for Standard Tuning
Songwriter: Desmond Child

Intro
C  |Eb |Bb |C  x 2

Verse 1
C/F         Eb
Runnin for something
            Bb
Looking for someone
             C/F
That's why I needed you so badly

C/F              Eb
Searchin, such a long time
                Bb
You handed me a lifeline
         C/F
Then you hung me like a hangman

Bridge
Bb              Eb
Woh oh, I can't take it anymore
Dm                        C
 I can't live with you or without you

Chorus
         Cm      G#     Bb
It's the price of lovin you
        Cm     G#   Bb
I don't know if I can make it through
               Cm      G#      Bb
I'm paying the price of lovin' you
      Cm    G#     Bb
All I know is that I want you (want you)


Verse 2
C                    Bb
Take me, play me and break me
                 F
You play with my weakness
                C
Tie me up 'till night until Im speechless

C                      Bb
Devil, dressed like an angel
                    F
You chase just like Levon
                 C
But your love is poison on my tounge baby

Bridge
Bb              Eb
Woh oh, I can't take it anymore
Dm                        C
 I can't live with you or without you

Chorus
         Cm      G#     Bb
It's the price of lovin you
        Cm     G#   Bb
I don't know if I can make it through
               Cm      G#      Bb
I'm paying the price of lovin' you
      Cm    G#     Bb
All I know is that I want you (want you)

Solo
(The rhytms may be a little hard, you have to listen to get the timing right)

Before solo
e-------------------------------------------------------------|
B-------------------------------------------------------------|
G-------------------------------------------------------------|
D---6--8--10--6--8-10--6--8--10--6--8-------------------------|
A---6--8--10--6--8-10--6--8--10--6--8---444-6-6--4-6----------|
E---4--6--8---4--6-8---4--6--8---4--6---222-4-4--2-4----------|

Solo rythm
e-------------------------------------------------------------|
B-------------------------------------------------------------|
G--3------------------6--2--4---2--4---2--4--6--2--4----------|
D--3--4--6---4--6-----6--2--4---2--4---2--4--6--2--4----------|
A--1--4--6---4--6-----4--0--2---0--2---0--2--4--0--2----------|
E-----2--4---2--4---------------------------------------------|


Bridge
        E
I can't take it anymore
Ebm                       C#
 I can't live with you or without you

Chorus
         C#m     A      B
It's the price of lovin you
        C#m    A    B
I don't know if I can make it through
               C#m      A      B
I'm paying the price of lovin' you
      C#m    A     B
All I know is that I want you (want you)

Repeat chorus 'till the end
Tap to rate this tab
 
# A B C D E F G H I J K L M N O P Q R S T U V W X Y Z