Song name
# A B C D E F G H I J K L M N O P Q R S T U V W X Y Z

Desmond Dekker - Poor Mi Israelites tab

Help us improve GuitareTab! Take a short survey!
Tune half step down

Intro:
e|----------------------------------------------------|
B|---------3/4----------------------------------------|
G|---------1/2----------------------------------------|
D|3/4-3/4----------------3/4--------------2222222h4p2-|
A|1/2-1/2------3/4----------1/2--55555555-0000000-----|
E|--------------1/2---------------33333333------------|

Verse:
Rythm guitar part is the barre chords B (7th fret), E (open) and F# (2nd fret) in that
order. Verses are ended with a power chord slide up to D or E on the A-string.
e|------------------------------------------------------------------|
B|------------------------------------------------------------------|
G|------------------------------------------------------------------|
D|--4-1---4-1---4-1---4-1--------------------------------4-1----4-1-|
A|2-----2-----2------2-------2------2------4-1---4-1--2------2------|
E|---------------------------0--4--0---4--2-----2-------------------|

This is scale is added to the end of each verse, the strings used switches, however.
e|---------------------------------------------------|
B|---------------------------------------------------|
G|---------0-2-4-5-7---------------------------------|
D|-0-2-4---------------------------------------------|
A|---------------------------------------------------|
E|---------------------------------------------------|
Related for Poor Mi Israelites tab