Song name
# A B C D E F G H I J K L M N O P Q R S T U V W X Y Z

Desmond Dekker - Rude Boy Train tab

Highlighted       Show chord diagrams
/ = Slide Down
\ = Slide Up

Intro Riff:
 
Bass           Horns (written for guitar)
              e------------------| 
              B------------------|
G-------------|-----------------.|
D-------------|-8-8-8-8-8-8/6\8-.|
A-4-6-4-6-----|------------------|
E---------4~~~|------------------|

Bass           Horns (written for guitar)
              e------------------| 
              B------------------|
G-------------|------------------|
D-------------|-8-8-8-8-8-8/6\8--|
A-4-6-4-6-----|------------------|
E---------6~~~|------------------|

Bass           Horns (written for guitar)
              e------------------|--------|
              B------------------|--------|
G-------------|------------------|--------|
D-------------|-8-8-8-8-8-8/6~~~-|-6~~~---|
A-4-6-4-6-----|------------------|--------|
E---------4~~~|------------------|--------|

Verse Chords:
                   Bb
The rude boy train is comin' now
The rude boy train is comin' now
             Eb                 Bb
Dippy dippy dooey - dippy dippy dooey

The rude boy boat is comin' now
The rude boy boat is comin' now
Dippy dippy dooey - dippy dippy dooey

The rude boy plane is comin' now
The rude boy plane is comin' now
Dippy dippy dooey - dippy dippy dooey

(Intro Riff)

(Verse Chords)

Rude boy get up a circuit chart
Rude boy get up a circuit chart
Dippy dippy dooey - dippy dippy dooey

Rude boy a loot an' a shoot an' a wail
Rude boy a loot an' a shoot an' a wail
Dippy dippy dooey - dippy dippy dooey

Double oh seven is back on the scene
Double oh seven is back on the scene
Dippy dippy dooey - dippy dippy dooey

(Intro Riff)

(Verse Chords)

The rude boy train is comin' now
The rude boy train is comin' now
Dippy dippy dooey - dippy dippy dooey

Rude boy get up a circuit chart
Rude boy get up a circuit chart
Dippy dippy dooey - dippy dippy dooey

Double oh seven is back on the scene
Double oh seven is back on the scene
Dippy dippy dooey - dippy dippy dooey

(Fade out on Intro Riff)
Tap to rate this tab
# A B C D E F G H I J K L M N O P Q R S T U V W X Y Z