Song name
# A B C D E F G H I J K L M N O P Q R S T U V W X Y Z

Desolated - Betrayal tab

Drop A tuning

B |--------------------------------------------------------------------------|
F#|--------------------------------------------------------------------------|
D |--------------------------------------------------------------------------|
A |--------------------------------------------------------------------------|
E |--------------------------------------------------------------------------|
A |0-0-1-4-----0-0-4-3-----0-0-1-4-----0-0-6-----0-0-5-----------------------|

B |--------------------------------------------------------------------------|
F#|--------------------------------------------------------------------------|
D |--------------------------------------------------------------------------|
A |0-0-1-4-----0-0-4-3-----0-0-1-4-----0-0-6-----0-0-5-----0-0---------------|
E |0-0-1-4-----0-0-4-3-----0-0-1-4-----0-0-6-----0-0-5-----0-0---------------|
A |0-0-1-4-----0-0-4-3-----0-0-1-4-----0-0-6-----0-0-5-----0-0---------------|

B |--------------------------------------------------------------------------|
F#|--------------------------------------------------------------------------|
D |--------------------------------------------------------------------------|
A |4-0-3-0---bass------------------------------------------------------------|
E |4-0-3-0-------------------------------------------------------------------|
A |4-0-3-0-------------------------------------------------------------------|

B |--------------------------------------------------------------------------|
F#|--------------------------------------------------------------------------|
D |--------------------------------------------------------------------------|
A |4-1--3-0---0-0-0-0-0-0-0-0-0-----4-1--3-0---0-0-0-0-0-0-0-0-0-----4-1---0-|
E |4-1--3-0---0-0-0-0-0-0-0-0-0-----4-1--3-0---0-0-0-0-0-0-0-0-0-----4-1---0-|
A |4-1--3-0---0-0-0-0-0-0-0-0-0-----4-1--3-0---0-0-0-0-0-0-0-0-0-----4-1---0-|


B |--------------------------------------------------------------------------|
F#|--------------------------------------------------------------------------|
D |--------------------------------------------------------------------------|
A |4-1--3-0---0-0-0-0-0-0-0-0-0----------------------------------------------|
E |4-1--3-0---0-0-0-0-0-0-0-0-0----------------------------------------------|
A |4-1--3-0---0-0-0-0-0-0-0-0-0-----0-1-4-3-0-0-4-3-0-1-0-1-0-1-4------------| x2


B |--------------------------------------------------------------------------|
F#|--------------------------------------------------------------------------|
D |--------------------------------------------------------------------------|
A |-0-0-0-1-4-3-0-0-4-3-0-1-0-1-0-1-4-----0-0-1-4-3-0-0-8-0-0-8-0-8-7--------|
E |-0-0-0-1-4-3-0-0-4-3-0-1-0-1-0-1-4-----0-0-1-4-3-0-0-6-0-0-6-0-6-5--------|
A |-0-0-0-1-4-3-0-0-4-3-0-1-0-1-0-1-4-----0-0-1-4-3-0-0---0-0---0------------| x2

B |----------------------------------------------------------------------------|
F#|----------------------------------------------------------------------------|
D |----------------------------------------------------------------------------|
A |-0-0-0-1-4-3-0-0-4-3-0-1-0-1-4---------0-0-1-4-3-0-0------------------------|
E |-0-0-0-1-4-3-0-0-4-3-0-1-0-1-4---------0-0-1-4-3-0-0--1--3------------------|
A |-0-0-0-1-4-3-0-0-4-3-0-1-0-1-4---------0-0-1-4-3-0-0-3--5-------------------|

B |--------------------------------------------------------------------------|
F#|--------------------------------------------------------------------------|
D |--------------------------------------------------------------------------|
A |-0-0-0-1-4-3-0-0-4-3-0-1-0-1-0-1-4-----0-0-1-4-3-0-0-8-0-0-8-0-8-7--------|
E |-0-0-0-1-4-3-0-0-4-3-0-1-0-1-0-1-4-----0-0-1-4-3-0-0-6-0-0-6-0-6-5--------|
A |-0-0-0-1-4-3-0-0-4-3-0-1-0-1-0-1-4-----0-0-1-4-3-0-0---0-0---0------------|

B |--------------------------------------------------------------------------|
F#|--------------------------------------------------------------------------|
D |--------------------------------------------------------------------------|
A |---------8-0-0-8-0-8-7----------------------------------------------------|
E |---------6-0-0-6-0-6-5------0-0-------------------------------------------|
A |-----------0-0---0----------1-1-------------------------------------------|

these wounds cease to bleed

B |--------------------------------------------------------------------------|
F#|--------------------------------------------------------------------------|
D |--------------------------------------------------------------------------|
A |-0-0-0-1-4-3---4-3--1-0-1-0-1-4-----0-0-1-4-3-----------------------------|
E |-0-0-0-1-4-3---4-3--1-0-1-0-1-4-----0-0-1-4-3-0-0-0-0-0-0-0-0-0-----------|
A |-0-0-0-1-4-3---4-3--1-0-1-0-1-4-----0-0-1-4-3-1-1-1-1-1-1-1-1-1-----------| x3

B |--------------------------------------------------------------------------|
F#|--------------------------------------------------------------------------|
D |--------------------------------------------------------------------------|
A |-0-0----------------------------------------------------------------------|
E |-0-0----------------------------------------------------------------------|
A |-0-0----------------------------------------------------------------------|


tabbed by Vinnie Roofthooft
Tap to rate this tab
# A B C D E F G H I J K L M N O P Q R S T U V W X Y Z