Song name
# A B C D E F G H I J K L M N O P Q R S T U V W X Y Z

Despairs Ray - Love Is Dead tab

Hello, this is tab for "Love is Dead" By D`espairsRay.
The song is on drop D.

Guitars start to play at 0:15 (This is intro, AND CHORUS)

Guitar I

e|------------------------------------------------------|
B|-----------------PLAY--IT--TWO--TIMES-----------------|
G|------------------------------------------------------|
D|--44444444----777--2222-----44444444----9999--2222----|
A|--44444444----777--2222-----44444444----9999--2222----|
D|--44444444----777--2222-----44444444----9999--2222----|

Guitar II

e|---------------------------PLAY--IT--TWO--TIMES-------------------------------|
B|-----------------------------------------------\/-it's-(11)-not-(1)-----------|
G|--666-6-9\6-9\6---9999--4444---666-6-9\6-9\6---11111111--4444-----------------|
D|--xxx-x-x-x-x-x---xxxx--xxxx---xxx-x-x-x-x-x---x-x-x-x---xxxx-----------------|
A|--444-4-7\4-7\4---7777--2222---444-4-7-4-7-4---9-9-9-9---2222-----------------|
D|------------------------------------------------------------------------------|

VERSE - Guitar I and II

e|-----------------------------------------------------------------------|
B|-----------------------------------------------------------------------|
G|-----------------------------------------------------------------------|
D|-2/4---4-4-4---2/4---4-4-4---7/9---9-9-9---7/9---9-9-9-----------------|
A|-2/4---4-4-4---2/4---4-4-4---7/9---9-9-9---7/9---9-9-9-----------------|
D|-2/4---4-4-4---2/4---4-4-4---7/9---9-9-9---7/9---9-9-9-----------------|


e|-----------------------------------------------------------------------|
B|-----------------------------------------------------------------------|
G|-----------------------------------------------------------------------|
D|-2/4---4-4-4---2/4---4-4-4---7/9---9-9-9---9/11---11-11-11111111-------|
A|-2/4---4-4-4---2/4---4-4-4---7/9---9-9-9---9/11---11-11-11111111-------|
D|-2/4---4-4-4---2/4---4-4-4---7/9---9-9-9---9/11---11-11-11111111-------|

And again you play this...



Guitar I

e|------------------------------------------------------|
B|-----------------PLAY--IT--TWO--TIMES-----------------|
G|------------------------------------------------------|
D|--44444444----777--2222-----44444444----9999--2222----|
A|--44444444----777--2222-----44444444----9999--2222----|
D|--44444444----777--2222-----44444444----9999--2222----|

Guitar II

e|---------------------------PLAY--IT--TWO--TIMES-------------------------------|
B|-----------------------------------------------\/-it's-(11)-not-(1)-----------|
G|--666-6-9\6-9\6---9999--4444---666-6-9\6-9\6---11111111--4444-----------------|
D|--xxx-x-x-x-x-x---xxxx--xxxx---xxx-x-x-x-x-x---x-x-x-x---xxxx-----------------|
A|--444-4-7\4-7\4---7777--2222---444-4-7-4-7-4---9-9-9-9---2222-----------------|
D|------------------------------------------------------------------------------|


And again you play verse

And then you play chorus

And THEN at 1:48 you play


e|------------------------------------------------|
B|------------------------------------------------|
G|------------------------------------------------|
D|--44--4-4-7---44--4-4-7---44--4-4-7---4-7-9-7-9-|
A|--44--4-4-7---44--4-4-7---44--4-4-7---4-7-9-7-9-|
D|--44--4-4-7---44--4-4-7---44--4-4-7---4-7-9-7-9-|

And second time you play..

e|------------------------------------------------|-------|
B|------------------------------------------------|-------|
G|------------------------------------------------|-------|
D|--44--4-4-7---44--4-4-7---44--4-4-7---2-2-2-----|---4~~~|
A|--44--4-4-7---44--4-4-7---44--4-4-7---2-2-2-----|---4~~~|
D|--44--4-4-7---44--4-4-7---44--4-4-7---2-2-2-----|---4~~~|


There is a guitar on clean but i didn't figure it out yet.. sorry.


e|-------------------------------|
B|-------------------------------|
G|-------------------------------|
D|--4--6--7--x99--xx111111-------|
A|--4--6--7--x99--xx111111-------|
D|--4--6--7--x99--xx111111-------|


e|----------------------------------------------|
B|---------PLAY-IT-THREE-TIMES------------------|
G|----------------------------------------------|
D|-0-------2-------4-------7--------------------|
A|-0-(x-8)-2-(x-8)-4-(x-8)-7-(x-8)--------------|
D|-0-------2-------4-------7--------------------|

|---------------------------------------------------------|
|---------------PLAY-IT-FOURTH-TIME-----------------------|
|---------------------------------------------------------|
|-0-------2-------4-------7-------x99--xx111111-----------|
|-0-(x-8)-2-(x-8)-4-(x-8)-7-(x-8)-x99--xx111111-----------|
|-0-------2-------4-------7-------x99--xx111111-----------|


And the CHORUS AGAIN.


It's all. If you have any suggestions, leave a comment.
Don't copy my hard work. Thanks.
Tap to rate this tab
 
# A B C D E F G H I J K L M N O P Q R S T U V W X Y Z