Song name
# A B C D E F G H I J K L M N O P Q R S T U V W X Y Z

Desperados - The Secret Desperado tab

-------------------------------------------------------------------------------
                             The Secret- Desperados
-------------------------------------------------------------------------------
Tabbed by: Eduard B
E-mail:eeddi09@yahoo.com

Tuning:Standard

e|-----------------------------------------------2--------3---0--------------|
B|--------------0---------1--------------------0---2--------0----------------|
G|-----------0-----0----------2--------------2-------------------------------|
D|-------2---------------------------------1---------------------------------|  x2
A|------------------------0----------0--2------------------------------------|
E|-0--3---------------------------------------------------0------------------|

e|-0-------0---2---3---2--0---------------0----------------------------------|
B|----------------------------1--------1-----1-----1-------------------------|
G|----------------------------------2-----------2----------------------------|
D|-------------------------------2-------------------------------------------|
A|----------------------------0----------------------------------------------|
E|---------------------------------------------------------------------------|

e|---------0---2---3---2---0---------------0-----------0---------------------|
B|-----------------------------0--------0-----0-----0------------------------|
G|-----------------------------------0-----------0---------------------------|
D|--------------------------------2------------------------------------------|
A|---------------------------------------------------------------------------|
E|-----------------------------0---------------------------------------------|


e|-----------0---2---3---2---0---------------2------------3--2-----0*--------|
B|-------------------------------0--------0-----0-----0------------0---------|
G|-------------------------------------2-----------2---------------0---------|
D|----------------------------------1------------------------------2---------|
A|-------------------------------2---------------------------------2---------|
E|-----------------------------------------------------------------0---------|


 This is my very first tab. I hope you like it.
************************************

| /   slide up
| \   slide down
| h   hammer-on
| p   pull-off
| ~   vibrato
| +   harmonic
| x   Mute note
| b   Bend
| pb  Pre-bend
| br  Bend release
| pbr Pre-bend release
| brb Bend release bend

************************************
Tap to rate this tab
# A B C D E F G H I J K L M N O P Q R S T U V W X Y Z