Song name
# A B C D E F G H I J K L M N O P Q R S T U V W X Y Z

Desperation Band - Ready Now tab

Ready now solo

Play this with medium overdrive and slide around a lot to get a metal slide sound.

e|-----------3-------------------------------------------------------|
B|--------/5---5-------5----------12~*-----10----12-10---------------|
G|-------------------5---5--/7---/12~---11----11---------------------|
D|-------------------------------------------------------------------|  
A|-------------------------------------------------------------------|
E|-------------------------------------------------------------------|

e|-------3---5~------------------------------------------------------|
B|----/5---5--------5---7-7b8--------12--12-----10----12-10----------|
G|---------------/5-----------5----/12--12---11----11----------------|
D|-------------------------------------------------------------------|  
A|-------------------------------------------------------------------|
E|-------------------------------------------------------------------|

Goes immediately into chords

Em C2 G D

*slow whammy bar
Tap to rate this tab
# A B C D E F G H I J K L M N O P Q R S T U V W X Y Z