Song name
# A B C D E F G H I J K L M N O P Q R S T U V W X Y Z

Desperation Band - Overcome tab

 this isnt how desperation plays it but its the same thing just in a lower key. I had a
time singing this in a high key so I just made it lower, if you can sing it the way
plays it, just go up a couple of frets and play it like this below. any tips on how you 
it might sound better e-mail me at hurley9597@aim.com

*its sounds good when you let the 7, 9, 5 all ring out*
| /  slide up
| \  slide down

e|---10-9-------------5-------10-9-----------------5--/--12--\--9------------|
B|----------7----9----------------------7----9-------------------------------|
G|---------------------------------------------------------------------------|
D|---------------------------------------------------------------------------|
A|---------------------------------------------------------------------------|
E|---------------------------------------------------------------------------|

ending of intro:

h  hammer-on

e|-------9-h-10--9-----------------------------------------------------------|
B|------------------10-------------------------------------------------------|
G|---------------------------------------------------------------------------|
D|---------------------------------------------------------------------------|
A|---------------------------------------------------------------------------|
E|---------------------------------------------------------------------------|
Tap to rate this tab
# A B C D E F G H I J K L M N O P Q R S T U V W X Y Z