Song name
# A B C D E F G H I J K L M N O P Q R S T U V W X Y Z

Desperation Band - I Will Go tab

I Will Go-Desperation Band

Tuning: E-A-D-G-B-E
Efects: Beefy Overdrive, Light Delay, Reverb

Intro:
1|--15---------------------|
2|-----13--13-12--12-------|
3|-------------------12----|
4|-------------------------|
5|-------------------------|
6|-------------------------|

Verse:
1|--15---------------------|  |-----------------------------------------|
2|-----13--13-12--12-------|  |-----------------------------------------|
3|-------------------12----|  |--12~12~12~12~12~12~12~12~14~14~14~14~~~~|
4|-------------------------|3x|-----------------------------------------|2x
5|-------------------------|  |-----------------------------------------|
6|-------------------------|  |-----------------------------------------|

Pre-Chorus:
1|---------------------------------|
2|----------------12----13-15-17--\|
3|-------------12----12------------|
4|--10-----------------------------|
5|--8-----7------------------------|
6|--------5------------------------|

Chorus:
1|----------------------------------------------------------------------------------|  |-----------|
2|----------------------------------------------------------------------------------|  |-----------|
3|--5-5-5-5-5-5-5-5-----------------------------------------------------------------|  |--5--------|
4|--5-5-5-5-5-5-5-5-5-5-5-5-5-5-5-5-7-7-7-7-7-7-7-7-5-5-5-5-5-5-5-5-3-3-3-3-3-3-3-3-|2x|--5--------|
5|--3-3-3-3-3-3-3-3-5-5-5-5-5-5-5-5-7-7-7-7-7-7-7-7-5-5-5-5-5-5-5-5-3-3-3-3-3-3-3-3-|  |--3--------|
6|------------------3-3-3-3-3-3-3-3-5-5-5-5-5-5-5-5-3-3-3-3-3-3-3-3-1-1-1-1-1-1-1-1-|  |-----------|

Verse:
1|--15---------------------|  |-----------------------------------------|
2|-----13--13-12--12-------|  |-----------------------------------------|
3|-------------------12----|  |--12~12~12~12~12~12~12~12~14~14~14~14~~~~|
4|-------------------------|3x|-----------------------------------------|2x
5|-------------------------|  |-----------------------------------------|
6|-------------------------|  |-----------------------------------------|

Pre-Chorus:
1|---------------------------------|
2|----------------12----13-15-17--\|
3|-------------12----12------------|
4|--10-----------------------------|
5|--8-----7------------------------|
6|--------5------------------------|

Chorus:
1|----------------------------------------------------------------------------------|  |-----------|
2|----------------------------------------------------------------------------------|  |-----------|
3|--5-5-5-5-5-5-5-5-----------------------------------------------------------------|  |--5--------|
4|--5-5-5-5-5-5-5-5-5-5-5-5-5-5-5-5-7-7-7-7-7-7-7-7-5-5-5-5-5-5-5-5-3-3-3-3-3-3-3-3-|2x|--5--------|
5|--3-3-3-3-3-3-3-3-5-5-5-5-5-5-5-5-7-7-7-7-7-7-7-7-5-5-5-5-5-5-5-5-3-3-3-3-3-3-3-3-|  |--3--------|
6|------------------3-3-3-3-3-3-3-3-5-5-5-5-5-5-5-5-3-3-3-3-3-3-3-3-1-1-1-1-1-1-1-1-|  |-----------|

1|--15-----------------------------|  |------------------------------------|
2|-----13----13-12----12-----------|  |------------------------------------|
3|-----------------------12--------|  |12~12~12~12~14~14~14~14~16~16~16~16~|
4|---------------------------------|4x|------------------------------------|
5|---------------------------------|  |------------------------------------|
6|---------------------------------|  |------------------------------------|

Chorus:
1|----------------------------------------------------------------------------------|  |-----------|
2|----------------------------------------------------------------------------------|  |-----------|
3|--5-5-5-5-5-5-5-5-----------------------------------------------------------------|  |--5--------|
4|--5-5-5-5-5-5-5-5-5-5-5-5-5-5-5-5-7-7-7-7-7-7-7-7-5-5-5-5-5-5-5-5-3-3-3-3-3-3-3-3-|2x|--5--------|
5|--3-3-3-3-3-3-3-3-5-5-5-5-5-5-5-5-7-7-7-7-7-7-7-7-5-5-5-5-5-5-5-5-3-3-3-3-3-3-3-3-|  |--3--------|
6|------------------3-3-3-3-3-3-3-3-5-5-5-5-5-5-5-5-3-3-3-3-3-3-3-3-1-1-1-1-1-1-1-1-|  |-----------|
Tap to rate this tab
 
# A B C D E F G H I J K L M N O P Q R S T U V W X Y Z