Song name
# A B C D E F G H I J K L M N O P Q R S T U V W X Y Z

Desperation Band - Ready Now tab

Verse:(00:28)
---------|------|-7-----|
--8-8-8-8|--8-8-|--8-8--|
-9-9-9-9-|-9-9--|---9---|
---------|------|-------|
---------|------|-------|
---------|------|-------|

-7-----|-7-------|-7---------|
--8-10-|--10-8-8-|--10-8-10--|
---9---|------9--|-----------|
-------|---------|-----------|
-------|---------|-----------|
-------|---------|-----------|

(01:03)
------|---7------7-7-|--7--7-|
--8-8-|-10-10-10-----|-8--8--|
-9-9--|--------------|-------|
------|--------------|-------|
------|--------------|-------|
------|--------------|-------|

(01:26)
---7--|-7--7--0-------------|
---7--|-8--8--8--7h8p7h8p7--|
-9-7--|-7--9--9--7----------|
------|-------10------------|
------|---------------------|
------|---------------------|

Chorus: (01:39)
--7-7------------7|-----------|
-8-8--10-8-8--10--|--8-8-8-8--|
----------9-------|-9-9-9-9-9-|
------------------|-----------|
------------------|-----------|
------------------|-----------|

--8-8--------7--------|
-7-7-10-8-8--8--8-10--|
---------9---7---9----|
----------------------|
----------------------|
----------------------|

--7-7-7-7---7--7--7------|
-8-8-8-8--10-10-10-10--0-|
----------------------9--|
-------------------------|
-------------------------|
-------------------------|

Bridge:

Em C G D

Instrumental:
---------------------------------|
--8-8----------------------------|
-9-9---9--9--9s16-16--10--12-10--|
-----10-10--10s17-17-11-11-------|
---------------------------------|
---------------------------------|

-------------------------------|
--8-8-10--7-8------------------|
-9-9-----9------16--16--16--16-|
-------10----10---17--17--17---|
-------------------------------|
-------------------------------|

---------------|
---------------|
---------------|
---14----------|
-16--16-16-----|
---------------|
Tap to rate this tab
# A B C D E F G H I J K L M N O P Q R S T U V W X Y Z