Desperation Band - My Savior Lives tab

Tabbed by: aildman17
Band: Desperation Band
Song: My Savior Lives
Key of B

Intro:
--------------------------------------------------------|
--------------------------------------------------------|
-7-------------7----------------------------------------|
--9-9-9-8-9-9-9-9-9-9--------14-14-14-15----------------|
--------------------------------------------------------|
--------------------------------------------------------|

Verse1:
----------------------------|
----------------------------|
--8-(4x)-9-9-----8-(4x)-6-6-| rpt 2x
-9--------------9-----------|
----------------------------|
----------------------------|

Our God will reign forever

And all the world will know His name
                                         C#m
Everyone together sing the song of the redeemed

Chorus:
B
I know that my redeemer lives
G#m
And now I stand on what He did
E                        B        E
My Savior, my Savior lives

B
Every day a brand new chance to say
G#m
"Jesus, You are the only way"
E                        B         E
My Savior, my Savior lives



Verse2:
----------------------------|
----------------------------|
--8-(4x)-9-9-----8-(4x)-6-6-| rpt 2x
-9--------------9-----------|
----------------------------|
----------------------------|

The King has come from Heaven

And darkness trembles at His name
                                     C#m
Victory forever is the song of the redeemed

Chorus:
B
I know that my redeemer lives
G#m
And now I stand on what He did
E                       B         E
My Savior, my Savior lives

B
Every day a brand new chance to say
G#m
"Jesus, You are the only way"
E                      B          E
My Savior, my Savior lives

Bridge:
-------------------|
-------------------|
-------------------|
-------------------|
-9--6---7--11------|
-7--4---5--9-------|

My Savior lives, My Savior lives, My Savior lives
B               G#m              A            C#m
My Savior lives, My Savior lives, My Savior lives
Tap to rate this tab
 
# A B C D E F G H I J K L M N O P Q R S T U V W X Y Z