Desperation Band - Solid Rock tab

Tabbed by: aildman17
Song: Solid Rock
Artist: Desperation Band

Intro: B  A  F#    B  A  B    D  C#  B

---------------------10-9---|
-12--10----12--10--12-------|
--------11------------------|
----------------------------|
----------------------------|
----------------------------|

---------------------10-9----|
-12--10----12--10--12-----12-|
--------11-------------------|
-----------------------------|
-----------------------------|
-----------------------------|


Verse 1


Standing on your promise

Hidden in Jesus

Hope of Glory
                  B  A  F#
Living inside my Life,
       B  A  B    D  C#  B
In my Life


Hold on to your mercy

Seeing what you see.

Hope of Glory
                  B  A  F#
Living inside my Life,
       B  A  B     D  C#
In my Life










Chorus

G                          D
I will stand on the Solid Rock
     A                     B
I believe if I feel it or Not
G                              D
Word of God come and fill my thoughts
      A              B
I am yours take control



Verse 2

The enemy defeated

Livin in Freedom

Hope of Glory
                  B  A  F#
Living Inside my Life,
       B  A  B      D  C#  B
In my Life


Bridge

G    D
Oh Oh
       A       B
I am standing on
G    D
Oh Oh
         A      B
on the Solid Rock


B  A  F#                         B  A  B
On Christ the Solid Rock I stand
B  A  F#                         B  A  B
All other Ground is Sinking Sand
Tap to rate this tab
 
# A B C D E F G H I J K L M N O P Q R S T U V W X Y Z