Song name
# A B C D E F G H I J K L M N O P Q R S T U V W X Y Z

Desperation Band - Overcome tab

Enjoy! This is the true tabs to Desperation Bands Overcome Intro.


e|---12-11--------------------12-11-----------------------------11-----------|
B|----------9----11----12----------------9----11----12 ----------------------|
G|---------------------------------------------------------11----------------|
D|---------------------------------------------------------------------------|
A|---------------------------------------------------------------------------|
E|---------------------------------------------------------------------------|


h  hammer-on
/  slide up


e|-------11-h-12--11---------------------------------------------------------|
B|--------------------12-----------------------------------------------------|
G|-----------------------11-/-4----------------------------------------------|
D|---------------------------------------------------------------------------|
A|---------------------------------------------------------------------------|
E|---------------------------------------------------------------------------|
Tap to rate this tab
 
# A B C D E F G H I J K L M N O P Q R S T U V W X Y Z