Song name
# A B C D E F G H I J K L M N O P Q R S T U V W X Y Z

Despised Icon - In The Arms Of Perdition tab

B---------------------------------------------------------|
F#--------------------------------------------------------|
D---------6-6---------6-6-------------6-6-------------5-5-|
A---------5-5---------5-5-------------5-5---------4-4-4-4-|
E---------4-4---------4-4-------------4-4---------3-3-3-3-|
B-0-0-0-0-----0-0-0-0-----0-3-0-3-0-3-----0-0-0-0---------|

B---------------------------------------------------------|
F#--------------------------------------------------------|
D---------6-6---------6-6-------------6-6-------------5-5-|
A---------5-5---------5-5-------------5-5---------4-4-4-4-|
E---------4-4---------4-4-------------4-4---------3-3-3-3-|
B-0-0-0-0-----0-0-0-0-----0-3-0-3-0-3-----0-0-0-0---------|

B---------------------------------------------------------|
F#--------------------------------------------------------|
D---------------------------------------------------------|
A---------------------------------------------------------|
E---------4-4-4-4-4-4-4-4---------3-3-3-3-----------------|
B-4-4-4-4-----------------4-4-4-4---------4-4-4-4-4-4-4-4-|

B-----------------------------------------------------------------|
F#----------------------------------------------------------------|
D-----------------------------------------------------------------|
A-----------------------------------------------------------------|
E-3-3-3-3-3-3-3-3-3-3-3-3-----------------------------------------|
B-------------------------4-4-4-4-3-3-3-3-3-3-3-3-2-2-2-2-2-2-2-2-|
Tap to rate this tab
 
# A B C D E F G H I J K L M N O P Q R S T U V W X Y Z