Song name
# A B C D E F G H I J K L M N O P Q R S T U V W X Y Z

Despised Icon - Fainted Blue Ornaments tab

Despised Icon
Fainted Blue Ornaments
The Ills Of Modern Man
Standard B
B,E,A,D,F#,B
And that is suppose to be an F#, not a G.
Just trust me and other people who do it.
You can use this tab if you are going to tab the rest of the song,
just give me credit for what I did. Thanks!
This is the part right after the clean guitar part, at 3:13.

|-19p0-14p0-15p0-12p0-14p0-15p0----|
|o--------------------------------o|
|----------------------------------|
|----------------------------------|x18
|o--------------------------------o|
|----------------------------------|

I don't know the harmonizing guitar parts in the back, but I think one of them is best 
these notes.
|-19-17-15-12------------------------|
|o----------------------------------o|
|------------------------------------|
|------------------------------------|
|o----------------------------------o|
|------------------------------------|

and then at 3:59

(All of the notes for gtr.1 and 2 are palm muted and tremolo picked)
Gtr.1
|-----------------------------------------------------------------|
|o---------------------------------------------------------------o|
|-----------------------------------------------------------------|
|-9-----------------7---------------------------------------------|until fade
|o--9-10-7-9-10(x2)---9-10-7-9--------10-7-9----7-9--------------o|
|------------------------------10(x2)--------10-----10-9-10-7-9-6-|
|
|Gtr.2 (The spacing is weird because i wanted it to line up with Gtr.1)
|-----------------------------------------------------------------|
|o---------------------------------------------------------------o|
|-----------------------------------------------------------------|
|-----------------------------------------------------------------|until fade
|o2-----------------0-------------------------------------------4o|
|---2-3--0-2-3(x2)----2-3--0-2-3(x2)--3--0-2-3--0-2-3--2-3--0-2---|

The End to one of the sickest CD's!!!!
Tap to rate this tab
# A B C D E F G H I J K L M N O P Q R S T U V W X Y Z