Song name
# A B C D E F G H I J K L M N O P Q R S T U V W X Y Z

Despite I Bleed - Black Door tab

dnt no if its in drop d but thats just how i figured it out peepz...

tis all tremolo picked
GTR 1:
E|------------------------------------------|
B|------------------------------------------|
G|----6--7----6--7--9--2--9--7--6-----------|
D|-5-------2--------------------------------|
A|------------------------------------------|
D|------------------------------------------|

all tremolo aswell cept the 5 power chord
GTR 2:
E|-------------------------------------------------|
B|-------------------------------------------------|
G|-------------------------------------------------|
D|----------------------------------5--5--x-x--5--5|
A|----4--5----4--5--7--0--7--5--4---5--5--x-x--5--5|
D|-5--------2-----------------------5--5--x-x--5--5|

um still workin on it but heres the breakdown per se jus the start


E|------------------------------------------|
B|------------------------------------------|
G|------------------------------------------|
D|--------5---4-------4------2--------------|
A|triplts---------5-----(X2)-2--------------|
D|-5-5-5----5---5---5--------2--------------|

um well fite club is on so ima watch that ill work out the rest if people like this 
smiley face here):)

www.myspace.com/despiteibleed
Tap to rate this tab
 
# A B C D E F G H I J K L M N O P Q R S T U V W X Y Z