Song name
# A B C D E F G H I J K L M N O P Q R S T U V W X Y Z

Destine - Spiders tab

Intro:
E|--x----x----x----x----x---|
B|--x----x----x----x----x---|
G|--4----6----9----11---14--|
D|--4----6----9----11---14--|
A|--2----4----7----9----12--| 
E|--x----x----x----x----x---|  2x

1st Verse:
E|--x----x--|  E|--x----x----x----x----x--|  E|--x----x--|
B|--x----x--|  B|--x----x----x----x----x--|  B|--x----x--| 
G|--6----x--|  G|--4----6----9----11---4--|  G|--6----x--|
D|--6----6--|  D|--4----6----9----11---4--|  D|--6----6--|
A|--4----6--|  A|--2----4----7----9----2--|  A|--4----6--|
E|--x----4--|  E|--x----x----x----x----x--|  E|--x----4--|

E|--x----x----x----x----x----2----x----x----x----x----x----x---|
B|--x----x----x----x----x----2----x----x----x----x----x----x---|
G|--4----6----9----11---4----2----4----6----x----x----x----x---|
D|--4----6----9----11---4----2----4----6----6----7----4----6---|
A|--2----4----7----9----2----x----2----4----6----7----4----6---|
E|--x----x----x----x----x----2----x----x----4----5----2----4---|

Chorus:
E|--x----x----x----x----x----|       E|--x----x----x----x----x----x--|
B|--x----x----x----x----x----|       B|--x----x----x----x----x----x--|
G|--4----6----9----11---x----|       G|--4----6----9----11---x----6--|
D|--4----6----9----11---6----|       D|--4----6----9----11---6----6--|
A|--2----4----7----9----6----|       A|--2----4----7----9----6----4--|
E|--x----x----x----x----4----| 3x    E|--x----x----x----x----4----x--|

2nd Verse:
E|--x----x----x----x----x----x----x----x----x--|
B|--x----x----x----x----x----x----x----x----x--|
G|--x----4----6----9----11---9----x----x----x--|
D|--6----4----6----9----11---9----x----x----x--|
A|--6----2----4----7----9----7----9v---5v---4v-|
E|--4----x----x----x----x----x----x----x----x--|

E|--xx----x----x----x----x----x----2----x----x----x----x----x----x----x--|
B|--xx----x----x----x----x----x----2----x----x----x----x----x----x----x--|
G|--xx----4----6----9----11---9----2----4----6----x----x----x----x----x--|
D|--xx----4----6----9----11---9----2----4----6----6----7----4----7----6--|
A|--xx----2----4----7----9----7----x----2----4----6----7----4----7----6--|
E|--xx----x----x----x----x----x----2----x----x----4----5----2----5----4--|

                      
Tap to rate this tab
 
# A B C D E F G H I J K L M N O P Q R S T U V W X Y Z