Song name
# A B C D E F G H I J K L M N O P Q R S T U V W X Y Z

Destinys Child - Girl tab

Artist: Destiny's Child
Song: Girl
Tabbed by: Carlos Ramirez
Tuning: EADGBe

RIFF:
e|----------------------------------------------------------------------|
B|-----5-5--7/9--7/9------5-5---7/9----------5-5---7/9--7/9-------------|
G|-4h6----6------------4h6----6-----5----4h6-----6----------------------|
D|----------------------------------------------------------------------|
A|----------------------------------------------------------------------|
E|----------------------------------------------------------------------|

INTRO AND VERSE:
  F#m7        Abm7           Amaj7
e|--2----------4--------------4------------------------------------------|
B|--2----------4--------------5------------------------------------------|
G|--2----------4--------------6------------------------------------------|
D|--2----------4--------------6------------------------------------------|
A|--x----------x--------------0------------------------------------------|
E|--2----------4--------------5------------------------------------------|
      take a minute girl come on sit down and tell us what's been happening

 F#m7      Abm7               Am7
e|-2--------4------------------5------------------------------------------|
B|-2--------4------------------5------------------------------------------|
G|-2--------4------------------5------------------------------------------|
D|-2--------4------------------5------------------------------------------|
A|-x--------x------------------x------------------------------------------|
E|-2--------4------------------5------------------------------------------|
   in your face I can see the pain don't try to convice us that you're happy

  F#m7        Abm7           Amaj7
e|--2----------4--------------4------------------------------------------|
B|--2----------4--------------5------------------------------------------|
G|--2----------4--------------6------------------------------------------|
D|--2----------4--------------6------------------------------------------|
A|--x----------x--------------0------------------------------------------|
E|--2----------4--------------5------------------------------------------|
     we've seen this all before brothers taking advantage of your passion

                F#m7/b
e|----------------0-------------------------------------------------------|
B|----------------7-------------------------------------------------------|
G|----------------6-------------------------------------------------------|
D|----------------7-------------------------------------------------------|
A|----------------x-------------------------------------------------------|
E|----------------7-------------------------------------------------------|
   because we've come too far for you to feel alone
   you don't let him walk all over you I'm telling you

CHORUS:
  F#m7  Abm7  Amaj7
e|--2----4-----4----------------------------------------------------------|
B|--2----4-----5----------------------------------------------------------|
G|--2----4-----6----------------------------------------------------------|
D|--2----4-----6----------------------------------------------------------|
A|--x----x-----0----------------------------------------------------------|
E|--2----4-----5----------------------------------------------------------|
   girl I can tell you've been crying and you needing somebody to talk to

  F#m7 Abm7  Am7
e|-2----4-----5-----------------------------------------------------------|
B|-2----4-----5-----------------------------------------------------------|
G|-2----4-----5-----------------------------------------------------------|
D|-2----4-----5-----------------------------------------------------------|
A|-x----x-----x-----------------------------------------------------------|
E|-2----4-----5-----------------------------------------------------------|
  girl I can tell he's been lying and pretending that he's faithful and he
                                                                  loves you
  F#m7  Abm7  Amaj7
e|--2----4-----4----------------------------------------------------------|
B|--2----4-----5----------------------------------------------------------|
G|--2----4-----6----------------------------------------------------------|
D|--2----4-----6----------------------------------------------------------|
A|--x----x-----0----------------------------------------------------------|
E|--2----4-----5----------------------------------------------------------|
    girl you don't have to be hiding don't you be ashamed to say he hurt you
  
           F#m7/b
e|-----------0-------------------------------------------------------------|
B|-----------7-------------------------------------------------------------|
G|-----------6-------------------------------------------------------------|
D|-----------7-------------------------------------------------------------|
A|-----------x-------------------------------------------------------------|
E|-----------7-------------------------------------------------------------|
   I'm your girl you're my girl we're your girls don't you know
   that we love you


verse, chorus

BRIDGE:
  F#m7          Abm7           Amaj7  F#m7/b                      Emaj7
e|--2-------------4--------------4-----0---------------------------4------|
B|--2-------------4--------------5-----7---------------------------4------|
G|--2-------------4--------------6-----6---------------------------4------|
D|--2-------------4--------------6-----7---------------------------6------|
A|--x-------------x--------------0-----x---------------------------7------|
E|--2-------------4--------------5-----7----------------------------------|
     girl take a good look at yourself   he got you going through hell

      Emaj7
e|-----4------------------------------------------------------------------|
B|-----4------------------------------------------------------------------|
G|-----4------------------------------------------------------------------|
D|-----6------------------------------------------------------------------|
A|-----7------------------------------------------------------------------|
E|------------------------------------------------------------------------|
   we ain't never seen you down like this

  F#m7       Abm7                   Amaj7 F#m7/B
e|-2----------4------------------------4---0------------------------------|
B|-2----------4------------------------5---7------------------------------|
G|-2----------4------------------------6---6------------------------------|
D|-2----------4------------------------6---7------------------------------|
A|-x----------x------------------------0---x------------------------------|
E|-2----------4------------------------5---7------------------------------|
   what you mean you don't need us to help   we know each other too well
                                                              whoaaa yeah

verse,chorus.....
Tap to rate this tab
 
# A B C D E F G H I J K L M N O P Q R S T U V W X Y Z