Song name
# A B C D E F G H I J K L M N O P Q R S T U V W X Y Z

Destinys Child - Survivor Acoustic tab

-------------------------------------------------------------------------------
		 SURVIVOR (ACOUSTIC) - Destiny's Child
-------------------------------------------------------------------------------

By:Chris Schneider

Okay, there isn't really an acoustic guitar part,
 but if there was, this would be it.

Verse:      Abm               Dbm              Ebm7             Abm
e|---------------------------------------------------------------4-----------|
B|-----------4-----------------5----------------7----------------------------|
G|---------------------------6---6------------6---6--------------------------|
D|---------6---6-----------6-------6---6----8-------8---8------6---6---------|
A|-------6-------6---6---4-----------4----6-----------6------6-------6---6---|
E|-----4-----------4---------------------------------------4-----------4-----|


Chorus: Abm    Dbm   Ebm7  Abm       
e|------4------4-----6------4------------------------------------------------|
B|------4------5-----7------4------------------------------------------------|
G|------4------6-----6------4--------------------------8---8-----------------|
D|------6------6-----8------6---------6----6---5---6---8---8-----------------|
A|------6------4-----6------6---------6----4---6---6---6---6-----------------|
E|------4-------------------4---------4----4---3---4-------------------------|


all the other sections are pretty much the same thing
Tap to rate this tab
# A B C D E F G H I J K L M N O P Q R S T U V W X Y Z