Song name
# A B C D E F G H I J K L M N O P Q R S T U V W X Y Z

Destinys Child - Lose My Breath tab

			     Lose my Breath - Destinys Child
Tabbed by: Bomber Boy
Email:

Tuning:Normal

Verse

e|-----------------------------------------------8----10-------|
B|---10--------10----10----10--------10----10--------------10--|
G|---------10-------------------10-----------------------------|
D|-------------------------------------------------------------|
A|-------------------------------------------------------------|
E|-------------------------------------------------------------|

e|---------------------------------------------8---12\10\8----|
B|-----10---10----10---------10----10----10-------------------|
G|10-------------------10-------------------------------------|
D|------------------------------------------------------------|
A|------------------------------------------------------------|
E|------------------------------------------------------------|

Pre Chorus

e|----------------------------------------8-------------------|
B|----10---10----10-------10---10---10------------------------|
G|10-----------------10---------------------------------------|
D|------------------------------------------------------------|
A|------------------------------------------------------------|
E|------------------------------------------------------------|

Chorus

e|---------------------8----8----10----------------------------|
B|10---10----10----11----------------10---10--8--10------------|
G|-------------------------------------------------------------|
D|-------------------------------------------------------------|
A|-------------------------------------------------------------|
E|-------------------------------------------------------------|

e|8----8----10-----------------8----8----10--------------------|
B|-------------10---10--8--10----------------10---10--8--10-10-|
G|-------------------------------------------------------------|
D|-------------------------------------------------------------|
A|-------------------------------------------------------------|
E|-------------------------------------------------------------|
                                Repeat for 2nd part of chorus


| /  slide up
| \  slide down
| h  hammer-on
| p  pull-off
| ~  vibrato
| +  harmonic
| x  Mute note
===============================================================================
RATE TAB
Tap to rate this tab
 
# A B C D E F G H I J K L M N O P Q R S T U V W X Y Z