Destrophy - The Way Of Your World tab

http://www.destrophy.com/
From what I can hear, this is about as close as I could get.

D----------------------------------------------------------------------------|
A----------------------------------------------------------------------------|
F----------------------------------------------------------------------------|
C--8--p6--h8--6--10--h11--p10--h11--p10--\8--6--h8--p6-----------------------|
G----------------------------------------------------------------------------|
C----------------------------------------------------------------------------|

D----------------------------------------------------------------------------|
A----------------------------10--10--11--11--9--13--14--11--9--11--9---------|
F--10--8--10--8--11--11--10--------------------------------------------------|
C----------------------------------------------------------------------------|
G----------------------------------------------------------------------------|
C----------------------------------------------------------------------------|

D--13--11--13--11--14--14--13----17--17--18----------------------------------|
A----------------------------------------------------------------------------|
F----------------------------------------------------------------------------|
C----------------------------------------------------------------------------|
G----------------------------------------------------------------------------|
C----------------------------------------------------------------------------|
Tap to rate this tab
 
# A B C D E F G H I J K L M N O P Q R S T U V W X Y Z