Song name
# A B C D E F G H I J K L M N O P Q R S T U V W X Y Z

Destroy Rebuild Until God Shows - Laminated Et Animal tab

This is the acoustic intro to Laminated 
E.T. Animal by D.R.U.G.S...took a while to learn 
but i think i got it sounding perfect. This is my 
first tab so if there's anything wrong hit me 
up on my email or message me on facebook! Thanks!

Email: pingponginthetrunk@hotmail.com
Facebook: http://www.facebook.com/home.php#!/Nic.Harper96

Tuning: Standard
Capo 5th fret


e|---------------------|-------3---------|
B|--1----3---5---6-----|----6-----6--5---|
G|---------------------|-----------------|
D|-----0---0---0---0---|----0-----0----0-|
A|--0----2---3---5-----|--5----5-----5---|
E|---------------------|-----------------|

e|------------------------|
B|--0------0---1--0-----0-|
G|-------------------1----|
D|----0----0------0-----0-|
A|------------------------|
E|--4----4-----4-----4----|

Tap to rate this tab
 
# A B C D E F G H I J K L M N O P Q R S T U V W X Y Z