Destroy Rebuild Until God Shows - Graveyard Dancing tab

Was asked to tab this out since all that is up is incorrect Chords and an Intro-only.

Tuning is Dropped-Db (Db,Ab,Db,Gb,Bb,Db)

Intro:

Db|----------------------------------------------------------------|
Bb|----------------------------------------------------------------|
Gb|----------------------------------------------------------------|
Db|--2-2-2-2-2-----------------------------------------------------|
Ab|--2-2-2-2-2-------------7------------7-----------2----------2---|
Db|--2-2-2-2-2---7-10-7-10----7-10-7-10-----2-5-2-5----2-5-2-5-----|

|-------------------------------------------------|
|-------------------------------------------------|
|-------------------------------------------------|
|-------------------------------------2-2-2-2-2---|
|-----------2----------2-----------2--2-2-2-2-2---|
|---1-5-1-5----1-5-1-5-----1-5-1-5----2-2-2-2-2---|

Verse: (Clean)

|--------------------------------------------------------------||
|-------------17--------------17------------12------------12---||
|-14-17-14-17-----14-17-14-17-----9-12-9-12-----9-12-9-12------||
|--------------------------------------------------------------||
|--------------------------------------------------------------||
|--------------------------------------------------------------||

|----------------------------------------------------------||
|-----------12------------12------------12------------12---||
|-8-11-8-11-----8-11-8-11-----8-11-8-11-----8-11-8-11------||
|----------------------------------------------------------|| 2x
|----------------------------------------------------------||
|----------------------------------------------------------||

|---------------------||
|---------------------||
|-5---------4---------||
|-5---------4---------||
|-3---------2---------||
|---------------------||


Chorus:
|---------------------------------||
|---------------------------------||
|-5--------------------7----------||
|-5(24x)----2----------7(12x)-----|| 2X
|-3---------2(12x)-----5----------||
|-----------2---------------------||

|-------------||
|-------------||
|-5-------7---||
|-5(12x)--7---||
|-3-------5---||
|-------------||

Repeat Intro

Not sure about most of Verse 2.
I just play the chorus chords, except instead of 775, play 442.

Palm-mute where the P's are:
|-----------------------------------||
|-----------------------------------||
|-5---------4-----4-4--4---4-4--4---||
|-5---------4-----4-4--4---4-4--4---||
|-3---------2-----2-2--2---2-2--2---||
|-----------------------------------||
                  P        P

Replay Chorus

Bridge Part 1:
|-------------------------------------------||
|-------------------------------------------||
|-9-------5--------9-------5----------------||
|-9(24x)--5(24x)---9(24x)--5(12x)--2--------||
|-7-------3--------7-------3-------2(12x)---||
|----------------------------------2--------||

Bridge Part 2:

Guitar One Plays:
|----------------------------------------------------|
|----------------------------------------------------|
|----------------------------------------------------|
|----------------------------------------------------|
|------------7------------7-----------2----------2---|
|--7-10-7-10----7-10-7-10-----2-5-2-5----2-5-2-5-----|

|-------------------------------------------------|
|-------------------------------------------------|
|-------------------------------------------------|
|-------------------------------------2-2-2-2-2---|
|-----------2----------2-----------2--2-2-2-2-2---|
|---1-5-1-5----1-5-1-5-----1-5-1-5----2-2-2-2-2---|


Haven't figured out the high notes for 2nd guitar.

Repeat Chorus starting at the 222.

End with:
|--------------------------------------------------------------||
|-------------17--------------17------------12------------12---||
|-14-17-14-17-----14-17-14-17-----9-12-9-12-----9-12-9-12------||
|--------------------------------------------------------------||
|--------------------------------------------------------------||
|--------------------------------------------------------------||

|-------------------------------------------------------||
|-----------12------------12------------12--------------||
|-8-11-8-11-----8-11-8-11-----8-11-8-11-----------------||
|-------------------------------------------2-2-2-2-2---||
|-------------------------------------------2-2-2-2-2---||
|-------------------------------------------2-2-2-2-2---||

Not 100% obviously, but surely close enough.
Tap to rate this tab
 
# A B C D E F G H I J K L M N O P Q R S T U V W X Y Z